  0
SECTION
  2
HEADER
  9
$ACADVER
  1
AC1027
  9
$ACADMAINTVER
 70
     8
  9
$DWGCODEPAGE
  3
ANSI_932
  9
$REQUIREDVERSIONS
160
                 0
  9
$LASTSAVEDBY
  1
t-simotome
  9
$INSBASE
 10
0.0
 20
0.0
 30
0.0
  9
$EXTMIN
 10
17.26075
 20
-122.80675
 30
0.0
  9
$EXTMAX
 10
236.77465
 20
0.20715
 30
0.0
  9
$LIMMIN
 10
0.0
 20
0.0
  9
$LIMMAX
 10
16.5278
 20
11.6806
  9
$ORTHOMODE
 70
     0
  9
$REGENMODE
 70
     1
  9
$FILLMODE
 70
     1
  9
$QTEXTMODE
 70
     0
  9
$MIRRTEXT
 70
     1
  9
$LTSCALE
 40
1.0
  9
$ATTMODE
 70
     1
  9
$TEXTSIZE
 40
0.2
  9
$TRACEWID
 40
0.05
  9
$TEXTSTYLE
  7
STANDARD
  9
$CLAYER
  8
0
  9
$CELTYPE
  6
CONTINUOUS
  9
$CECOLOR
 62
     0
  9
$CELTSCALE
 40
1.0
  9
$DISPSILH
 70
     0
  9
$DIMSCALE
 40
1.0
  9
$DIMASZ
 40
0.18
  9
$DIMEXO
 40
0.0625
  9
$DIMDLI
 40
0.38
  9
$DIMRND
 40
0.0
  9
$DIMDLE
 40
0.0
  9
$DIMEXE
 40
0.18
  9
$DIMTP
 40
0.0
  9
$DIMTM
 40
0.0
  9
$DIMTXT
 40
0.18
  9
$DIMCEN
 40
0.09
  9
$DIMTSZ
 40
0.0
  9
$DIMTOL
 70
     0
  9
$DIMLIM
 70
     0
  9
$DIMTIH
 70
     1
  9
$DIMTOH
 70
     1
  9
$DIMSE1
 70
     0
  9
$DIMSE2
 70
     0
  9
$DIMTAD
 70
     0
  9
$DIMZIN
 70
     0
  9
$DIMBLK
  1

  9
$DIMASO
 70
     1
  9
$DIMSHO
 70
     1
  9
$DIMPOST
  1

  9
$DIMAPOST
  1

  9
$DIMALT
 70
     0
  9
$DIMALTD
 70
     2
  9
$DIMALTF
 40
25.4
  9
$DIMLFAC
 40
1.0
  9
$DIMTOFL
 70
     0
  9
$DIMTVP
 40
0.0
  9
$DIMTIX
 70
     0
  9
$DIMSOXD
 70
     0
  9
$DIMSAH
 70
     0
  9
$DIMBLK1
  1

  9
$DIMBLK2
  1

  9
$DIMSTYLE
  2
Standard
  9
$DIMCLRD
 70
     0
  9
$DIMCLRE
 70
     0
  9
$DIMCLRT
 70
     0
  9
$DIMTFAC
 40
1.0
  9
$DIMGAP
 40
0.09
  9
$DIMJUST
 70
     0
  9
$DIMSD1
 70
     0
  9
$DIMSD2
 70
     0
  9
$DIMTOLJ
 70
     1
  9
$DIMTZIN
 70
     0
  9
$DIMALTZ
 70
     0
  9
$DIMALTTZ
 70
     0
  9
$DIMUPT
 70
     0
  9
$DIMDEC
 70
     4
  9
$DIMTDEC
 70
     4
  9
$DIMALTU
 70
     2
  9
$DIMALTTD
 70
     2
  9
$DIMTXSTY
  7
STANDARD
  9
$DIMAUNIT
 70
     0
  9
$DIMADEC
 70
     0
  9
$DIMALTRND
 40
0.0
  9
$DIMAZIN
 70
     0
  9
$DIMDSEP
 70
    46
  9
$DIMATFIT
 70
     3
  9
$DIMFRAC
 70
     0
  9
$DIMLDRBLK
  1

  9
$DIMLUNIT
 70
     2
  9
$DIMLWD
 70
    -2
  9
$DIMLWE
 70
    -2
  9
$DIMTMOVE
 70
     2
  9
$DIMFXL
 40
1.0
  9
$DIMFXLON
 70
     0
  9
$DIMJOGANG
 40
0.7853981633974483
  9
$DIMTFILL
 70
     0
  9
$DIMTFILLCLR
 70
     0
  9
$DIMARCSYM
 70
     0
  9
$DIMLTYPE
  6

  9
$DIMLTEX1
  6

  9
$DIMLTEX2
  6

  9
$DIMTXTDIRECTION
 70
     0
  9
$LUNITS
 70
     2
  9
$LUPREC
 70
     4
  9
$SKETCHINC
 40
0.1
  9
$FILLETRAD
 40
0.5
  9
$AUNITS
 70
     0
  9
$AUPREC
 70
     0
  9
$MENU
  1
.
  9
$ELEVATION
 40
0.0
  9
$PELEVATION
 40
0.0
  9
$THICKNESS
 40
0.0
  9
$LIMCHECK
 70
     0
  9
$CHAMFERA
 40
0.0
  9
$CHAMFERB
 40
0.0
  9
$CHAMFERC
 40
0.0
  9
$CHAMFERD
 40
0.0
  9
$SKPOLY
 70
     0
  9
$TDCREATE
 40
2458592.47171125
  9
$TDUCREATE
 40
2458592.09671125
  9
$TDUPDATE
 40
2459472.662901956
  9
$TDUUPDATE
 40
2459472.287901956
  9
$TDINDWG
 40
0.0034787616
  9
$TDUSRTIMER
 40
0.0034787616
  9
$USRTIMER
 70
     1
  9
$ANGBASE
 50
0.0
  9
$ANGDIR
 70
     0
  9
$PDMODE
 70
     0
  9
$PDSIZE
 40
0.0
  9
$PLINEWID
 40
0.0
  9
$SPLFRAME
 70
     0
  9
$SPLINETYPE
 70
     6
  9
$SPLINESEGS
 70
     8
  9
$HANDSEED
  5
DA9
  9
$SURFTAB1
 70
     6
  9
$SURFTAB2
 70
     6
  9
$SURFTYPE
 70
     6
  9
$SURFU
 70
     6
  9
$SURFV
 70
     6
  9
$UCSBASE
  2

  9
$UCSNAME
  2

  9
$UCSORG
 10
0.0
 20
0.0
 30
0.0
  9
$UCSXDIR
 10
1.0
 20
0.0
 30
0.0
  9
$UCSYDIR
 10
0.0
 20
1.0
 30
0.0
  9
$UCSORTHOREF
  2

  9
$UCSORTHOVIEW
 70
     0
  9
$UCSORGTOP
 10
0.0
 20
0.0
 30
0.0
  9
$UCSORGBOTTOM
 10
0.0
 20
0.0
 30
0.0
  9
$UCSORGLEFT
 10
0.0
 20
0.0
 30
0.0
  9
$UCSORGRIGHT
 10
0.0
 20
0.0
 30
0.0
  9
$UCSORGFRONT
 10
0.0
 20
0.0
 30
0.0
  9
$UCSORGBACK
 10
0.0
 20
0.0
 30
0.0
  9
$PUCSBASE
  2

  9
$PUCSNAME
  2

  9
$PUCSORG
 10
0.0
 20
0.0
 30
0.0
  9
$PUCSXDIR
 10
1.0
 20
0.0
 30
0.0
  9
$PUCSYDIR
 10
0.0
 20
1.0
 30
0.0
  9
$PUCSORTHOREF
  2

  9
$PUCSORTHOVIEW
 70
     0
  9
$PUCSORGTOP
 10
0.0
 20
0.0
 30
0.0
  9
$PUCSORGBOTTOM
 10
0.0
 20
0.0
 30
0.0
  9
$PUCSORGLEFT
 10
0.0
 20
0.0
 30
0.0
  9
$PUCSORGRIGHT
 10
0.0
 20
0.0
 30
0.0
  9
$PUCSORGFRONT
 10
0.0
 20
0.0
 30
0.0
  9
$PUCSORGBACK
 10
0.0
 20
0.0
 30
0.0
  9
$USERI1
 70
     0
  9
$USERI2
 70
     0
  9
$USERI3
 70
     0
  9
$USERI4
 70
     0
  9
$USERI5
 70
     0
  9
$USERR1
 40
0.0
  9
$USERR2
 40
0.0
  9
$USERR3
 40
0.0
  9
$USERR4
 40
0.0
  9
$USERR5
 40
0.0
  9
$WORLDVIEW
 70
     1
  9
$SHADEDGE
 70
     3
  9
$SHADEDIF
 70
    70
  9
$TILEMODE
 70
     1
  9
$MAXACTVP
 70
    64
  9
$PINSBASE
 10
0.0
 20
0.0
 30
0.0
  9
$PLIMCHECK
 70
     0
  9
$PEXTMIN
 10
1.000000000000000E+20
 20
1.000000000000000E+20
 30
1.000000000000000E+20
  9
$PEXTMAX
 10
-1.000000000000000E+20
 20
-1.000000000000000E+20
 30
-1.000000000000000E+20
  9
$PLIMMIN
 10
0.0
 20
0.0
  9
$PLIMMAX
 10
12.0
 20
9.0
  9
$UNITMODE
 70
     0
  9
$VISRETAIN
 70
     1
  9
$PLINEGEN
 70
     0
  9
$PSLTSCALE
 70
     1
  9
$TREEDEPTH
 70
  3020
  9
$CMLSTYLE
  2
Standard
  9
$CMLJUST
 70
     0
  9
$CMLSCALE
 40
1.0
  9
$PROXYGRAPHICS
 70
     1
  9
$MEASUREMENT
 70
     0
  9
$CELWEIGHT
370
    -1
  9
$ENDCAPS
280
     0
  9
$JOINSTYLE
280
     0
  9
$LWDISPLAY
290
     0
  9
$INSUNITS
 70
     0
  9
$HYPERLINKBASE
  1

  9
$STYLESHEET
  1

  9
$XEDIT
290
     1
  9
$CEPSNTYPE
380
     3
  9
$CEPSNID
390
0
  9
$PSTYLEMODE
290
     1
  9
$FINGERPRINTGUID
  2
{D2079169-D809-456F-840A-24BC05563243}
  9
$VERSIONGUID
  2
{FAEB1C32-E019-11D5-929B-00C0DF256EC4}
  9
$EXTNAMES
290
     1
  9
$PSVPSCALE
 40
0.0
  9
$OLESTARTUP
290
     0
  9
$SORTENTS
280
   127
  9
$INDEXCTL
280
     0
  9
$HIDETEXT
280
     1
  9
$XCLIPFRAME
280
     2
  9
$HALOGAP
280
     0
  9
$OBSCOLOR
 70
   257
  9
$OBSLTYPE
280
     0
  9
$INTERSECTIONDISPLAY
280
     0
  9
$INTERSECTIONCOLOR
 70
   257
  9
$DIMASSOC
280
     2
  9
$PROJECTNAME
  1

  9
$CAMERADISPLAY
290
     0
  9
$LENSLENGTH
 40
50.0
  9
$CAMERAHEIGHT
 40
0.0
  9
$STEPSPERSEC
 40
2.0
  9
$STEPSIZE
 40
6.0
  9
$3DDWFPREC
 40
2.0
  9
$PSOLWIDTH
 40
0.25
  9
$PSOLHEIGHT
 40
4.0
  9
$LOFTANG1
 40
1.570796326794897
  9
$LOFTANG2
 40
1.570796326794897
  9
$LOFTMAG1
 40
0.0
  9
$LOFTMAG2
 40
0.0
  9
$LOFTPARAM
 70
     7
  9
$LOFTNORMALS
280
     1
  9
$LATITUDE
 40
37.795
  9
$LONGITUDE
 40
-122.394
  9
$NORTHDIRECTION
 40
0.0
  9
$TIMEZONE
 70
 -8000
  9
$LIGHTGLYPHDISPLAY
280
     1
  9
$TILEMODELIGHTSYNCH
280
     1
  9
$CMATERIAL
347
CDE
  9
$SOLIDHIST
280
     1
  9
$SHOWHIST
280
     1
  9
$DWFFRAME
280
     2
  9
$DGNFRAME
280
     0
  9
$REALWORLDSCALE
290
     1
  9
$INTERFERECOLOR
 62
   256
  9
$CSHADOW
280
     0
  9
$SHADOWPLANELOCATION
 40
0.0
  0
ENDSEC
  0
SECTION
  2
CLASSES
  0
CLASS
  1
ACDBDICTIONARYWDFLT
  2
AcDbDictionaryWithDefault
  3
ObjectDBX Classes
 90
        0
 91
        4
280
     0
281
     0
  0
CLASS
  1
SCALE
  2
AcDbScale
  3
ObjectDBX Classes
 90
     1153
 91
        4
280
     0
281
     0
  0
CLASS
  1
VISUALSTYLE
  2
AcDbVisualStyle
  3
ObjectDBX Classes
 90
     4095
 91
        4
280
     0
281
     0
  0
CLASS
  1
MATERIAL
  2
AcDbMaterial
  3
ObjectDBX Classes
 90
     1153
 91
        4
280
     0
281
     0
  0
CLASS
  1
TABLESTYLE
  2
AcDbTableStyle
  3
ObjectDBX Classes
 90
     4095
 91
        4
280
     0
281
     0
  0
CLASS
  1
MLEADERSTYLE
  2
AcDbMLeaderStyle
  3
ACDB_MLEADERSTYLE_CLASS
 90
     4095
 91
        4
280
     0
281
     0
  0
CLASS
  1
DICTIONARYVAR
  2
AcDbDictionaryVar
  3
ObjectDBX Classes
 90
        0
 91
        4
280
     0
281
     0
  0
CLASS
  1
CELLSTYLEMAP
  2
AcDbCellStyleMap
  3
ObjectDBX Classes
 90
     1152
 91
        4
280
     0
281
     0
  0
ENDSEC
  0
SECTION
  2
TABLES
  0
TABLE
  2
VPORT
  5
8
330
0
100
AcDbSymbolTable
 70
     1
  0
VPORT
  5
C9D
330
8
100
AcDbSymbolTableRecord
100
AcDbViewportTableRecord
  2
*Active
 70
     0
 10
0.0
 20
0.0
 11
1.0
 21
1.0
 12
88.15840172855945
 22
-45.84281822685178
 13
0.0
 23
0.0
 14
0.5
 24
0.5
 15
0.5
 25
0.5
 16
0.0
 26
0.0
 36
1.0
 17
0.0
 27
0.0
 37
0.0
 40
147.8363141762193
 41
1.336146272855134
 42
50.0
 43
0.0
 44
0.0
 50
0.0
 51
0.0
 71
     0
 72
   100
 73
     1
 74
     3
 75
     0
 76
     0
 77
     0
 78
     0
281
     0
 65
     1
110
0.0
120
0.0
130
0.0
111
1.0
121
0.0
131
0.0
112
0.0
122
1.0
132
0.0
 79
     0
146
0.0
 60
     3
 61
     5
292
     1
282
     1
141
0.0
142
0.0
 63
   250
  0
ENDTAB
  0
TABLE
  2
LTYPE
  5
5
330
0
100
AcDbSymbolTable
 70
     4
  0
LTYPE
  5
14
330
5
100
AcDbSymbolTableRecord
100
AcDbLinetypeTableRecord
  2
ByBlock
 70
     0
  3

 72
    65
 73
     0
 40
0.0
  0
LTYPE
  5
15
330
5
100
AcDbSymbolTableRecord
100
AcDbLinetypeTableRecord
  2
ByLayer
 70
     0
  3

 72
    65
 73
     0
 40
0.0
  0
LTYPE
  5
16
330
5
100
AcDbSymbolTableRecord
100
AcDbLinetypeTableRecord
  2
CONTINUOUS
 70
     0
  3
Descriptive Text
 72
    65
 73
     0
 40
0.0
  0
LTYPE
  5
21
330
5
100
AcDbSymbolTableRecord
100
AcDbLinetypeTableRecord
  2
DASH1
 70
     0
  3
Descriptive Text
 72
    65
 73
     2
 40
0.1111
 49
0.0694
 74
     0
 49
-0.0417
 74
     0
  0
LTYPE
  5
22
330
5
100
AcDbSymbolTableRecord
100
AcDbLinetypeTableRecord
  2
DASH2
 70
     0
  3
Descriptive Text
 72
    65
 73
     2
 40
0.0556
 49
0.0278
 74
     0
 49
-0.0278
 74
     0
  0
LTYPE
  5
23
330
5
100
AcDbSymbolTableRecord
100
AcDbLinetypeTableRecord
  2
DASH3
 70
     0
  3
Descriptive Text
 72
    65
 73
     2
 40
0.0417
 49
0.0278
 74
     0
 49
-0.0139
 74
     0
  0
ENDTAB
  0
TABLE
  2
LAYER
  5
2
330
0
100
AcDbSymbolTable
 70
     2
  0
LAYER
  5
10
330
2
100
AcDbSymbolTableRecord
100
AcDbLayerTableRecord
  2
0
 70
     0
 62
     7
  6
CONTINUOUS
370
    -3
390
11
347
CE0
348
0
  0
LAYER
  5
24
330
2
100
AcDbSymbolTableRecord
100
AcDbLayerTableRecord
  2
O
 70
     0
 62
     7
  6
CONTINUOUS
370
    -3
390
F
347
CE0
348
0
  0
ENDTAB
  0
TABLE
  2
STYLE
  5
3
330
0
100
AcDbSymbolTable
 70
     7
  0
STYLE
  5
12
330
3
100
AcDbSymbolTableRecord
100
AcDbTextStyleTableRecord
  2
STANDARD
 70
     0
 40
0.0
 41
1.0
 50
0.0
 71
     0
 42
0.2
  3
txt
  4

  0
STYLE
  5
26
330
3
100
AcDbSymbolTableRecord
100
AcDbTextStyleTableRecord
  2
ＭＳ_明朝
 70
     0
 40
0.0
 41
1.0
 50
0.0
 71
     0
 42
0.2
  3
ＭＳ 明朝
  4

  0
STYLE
  5
27
330
3
100
AcDbSymbolTableRecord
100
AcDbTextStyleTableRecord
  2
Arial
 70
     0
 40
0.0
 41
1.0
 50
0.0
 71
     0
 42
0.2
  3
arial
  4

  0
STYLE
  5
28
330
3
100
AcDbSymbolTableRecord
100
AcDbTextStyleTableRecord
  2
Osaka
 70
     0
 40
0.0
 41
1.0
 50
0.0
 71
     0
 42
0.2
  3
osaka
  4

  0
STYLE
  5
29
330
3
100
AcDbSymbolTableRecord
100
AcDbTextStyleTableRecord
  2
ＭＳ_ゴシック
 70
     0
 40
0.0
 41
1.0
 50
0.0
 71
     0
 42
0.2
  3
ＭＳ ゴシック
  4

  0
STYLE
  5
2A
330
3
100
AcDbSymbolTableRecord
100
AcDbTextStyleTableRecord
  2
ＭＳ_Ｐゴシック
 70
     0
 40
0.0
 41
1.0
 50
0.0
 71
     0
 42
0.2
  3
ＭＳ Ｐゴシック
  4

  0
STYLE
  5
2B
330
3
100
AcDbSymbolTableRecord
100
AcDbTextStyleTableRecord
  2
ＤＦ平成ゴシック体W5
 70
     0
 40
0.0
 41
1.0
 50
0.0
 71
     0
 42
0.2
  3
ＤＦ平成ゴシック体W5
  4

  0
ENDTAB
  0
TABLE
  2
VIEW
  5
6
330
0
100
AcDbSymbolTable
 70
     0
  0
ENDTAB
  0
TABLE
  2
UCS
  5
7
330
0
100
AcDbSymbolTable
 70
     0
  0
ENDTAB
  0
TABLE
  2
APPID
  5
9
330
0
100
AcDbSymbolTable
 70
     2
  0
APPID
  5
13
330
9
100
AcDbSymbolTableRecord
100
AcDbRegAppTableRecord
  2
ACAD
 70
     0
  0
APPID
  5
CE5
330
9
100
AcDbSymbolTableRecord
100
AcDbRegAppTableRecord
  2
ACAD_MLEADERVER
 70
     0
  0
ENDTAB
  0
TABLE
  2
DIMSTYLE
  5
A
330
0
100
AcDbSymbolTable
 70
     1
100
AcDbDimStyleTable
  0
DIMSTYLE
105
2E
330
A
100
AcDbSymbolTableRecord
100
AcDbDimStyleTableRecord
  2
Standard
 70
     0
178
     0
340
12
  0
ENDTAB
  0
TABLE
  2
BLOCK_RECORD
  5
1
330
0
100
AcDbSymbolTable
 70
    29
  0
BLOCK_RECORD
  5
1D
330
1
100
AcDbSymbolTableRecord
100
AcDbBlockTableRecord
  2
*Model_Space
340
1E
 70
     0
280
     1
281
     0
  0
BLOCK_RECORD
  5
1B
330
1
100
AcDbSymbolTableRecord
100
AcDbBlockTableRecord
  2
*Paper_Space
340
1C
 70
     0
280
     1
281
     0
  0
BLOCK_RECORD
  5
30
330
1
100
AcDbSymbolTableRecord
100
AcDbBlockTableRecord
  2
Group1
340
0
102
{BLKREFS
331
F0
331
F0
102
}
 70
     0
280
     1
281
     0
  0
BLOCK_RECORD
  5
EF
330
1
100
AcDbSymbolTableRecord
100
AcDbBlockTableRecord
  2
Group2
340
0
102
{BLKREFS
331
227
331
227
102
}
 70
     0
280
     1
281
     0
  0
BLOCK_RECORD
  5
12B
330
1
100
AcDbSymbolTableRecord
100
AcDbBlockTableRecord
  2
Group3
340
0
102
{BLKREFS
331
1EB
331
1EB
102
}
 70
     0
280
     1
281
     0
  0
BLOCK_RECORD
  5
1EA
330
1
100
AcDbSymbolTableRecord
100
AcDbBlockTableRecord
  2
Group4
340
0
102
{BLKREFS
331
228
331
228
102
}
 70
     0
280
     1
281
     0
  0
BLOCK_RECORD
  5
226
330
1
100
AcDbSymbolTableRecord
100
AcDbBlockTableRecord
  2
Group5
340
0
102
{BLKREFS
331
AE1
331
D1E
331
D1E
331
AE1
102
}
 70
     0
280
     1
281
     0
  0
BLOCK_RECORD
  5
22B
330
1
100
AcDbSymbolTableRecord
100
AcDbBlockTableRecord
  2
Group6
340
0
102
{BLKREFS
331
AE2
331
0
331
0
331
AE2
331
DA0
102
}
 70
     0
280
     1
281
     0
  0
BLOCK_RECORD
  5
2C9
330
1
100
AcDbSymbolTableRecord
100
AcDbBlockTableRecord
  2
Group7
340
0
102
{BLKREFS
331
AE3
331
0
331
0
331
AE3
331
DA1
102
}
 70
     0
280
     1
281
     0
  0
BLOCK_RECORD
  5
34B
330
1
100
AcDbSymbolTableRecord
100
AcDbBlockTableRecord
  2
Group8
340
0
102
{BLKREFS
331
AE4
331
0
331
0
331
AE4
331
DA2
102
}
 70
     0
280
     1
281
     0
  0
BLOCK_RECORD
  5
3DB
330
1
100
AcDbSymbolTableRecord
100
AcDbBlockTableRecord
  2
Group9
340
0
102
{BLKREFS
331
C4D
331
0
331
0
331
C4D
331
DA3
102
}
 70
     0
280
     1
281
     0
  0
BLOCK_RECORD
  5
46B
330
1
100
AcDbSymbolTableRecord
100
AcDbBlockTableRecord
  2
Group10
340
0
102
{BLKREFS
331
C4E
331
0
331
0
331
C4E
331
DA4
102
}
 70
     0
280
     1
281
     0
  0
BLOCK_RECORD
  5
509
330
1
100
AcDbSymbolTableRecord
100
AcDbBlockTableRecord
  2
Group11
340
0
102
{BLKREFS
331
56C
331
D80
331
D80
331
56C
102
}
 70
     0
280
     1
281
     0
  0
BLOCK_RECORD
  5
56B
330
1
100
AcDbSymbolTableRecord
100
AcDbBlockTableRecord
  2
Group12
340
0
102
{BLKREFS
331
C4F
331
C4F
102
}
 70
     0
280
     1
281
     0
  0
BLOCK_RECORD
  5
57D
330
1
100
AcDbSymbolTableRecord
100
AcDbBlockTableRecord
  2
Group13
340
0
102
{BLKREFS
331
5E2
331
5E2
102
}
 70
     0
280
     1
281
     0
  0
BLOCK_RECORD
  5
58F
330
1
100
AcDbSymbolTableRecord
100
AcDbBlockTableRecord
  2
Group14
340
0
102
{BLKREFS
331
C57
331
D6C
331
D6C
331
C57
102
}
 70
     0
280
     1
281
     0
  0
BLOCK_RECORD
  5
5E5
330
1
100
AcDbSymbolTableRecord
100
AcDbBlockTableRecord
  2
Group15
340
0
102
{BLKREFS
331
64A
331
64A
102
}
 70
     0
280
     1
281
     0
  0
BLOCK_RECORD
  5
5F7
330
1
100
AcDbSymbolTableRecord
100
AcDbBlockTableRecord
  2
Group16
340
0
102
{BLKREFS
331
C5C
331
D6E
331
D6E
331
C5C
102
}
 70
     0
280
     1
281
     0
  0
BLOCK_RECORD
  5
64D
330
1
100
AcDbSymbolTableRecord
100
AcDbBlockTableRecord
  2
Group17
340
0
102
{BLKREFS
331
C5D
331
D6F
331
D6F
331
C5D
102
}
 70
     0
280
     1
281
     0
  0
BLOCK_RECORD
  5
673
330
1
100
AcDbSymbolTableRecord
100
AcDbBlockTableRecord
  2
Group18
340
0
102
{BLKREFS
331
C5E
331
D70
331
D70
331
C5E
102
}
 70
     0
280
     1
281
     0
  0
BLOCK_RECORD
  5
6DE
330
1
100
AcDbSymbolTableRecord
100
AcDbBlockTableRecord
  2
Group19
340
0
102
{BLKREFS
331
C5F
331
D71
331
D71
331
C5F
102
}
 70
     0
280
     1
281
     0
  0
BLOCK_RECORD
  5
73B
330
1
100
AcDbSymbolTableRecord
100
AcDbBlockTableRecord
  2
Group20
340
0
102
{BLKREFS
331
C60
331
D72
331
D72
331
C60
102
}
 70
     0
280
     1
281
     0
  0
BLOCK_RECORD
  5
749
330
1
100
AcDbSymbolTableRecord
100
AcDbBlockTableRecord
  2
Group21
340
0
102
{BLKREFS
331
C61
331
D73
331
D73
331
C61
102
}
 70
     0
280
     1
281
     0
  0
BLOCK_RECORD
  5
7B4
330
1
100
AcDbSymbolTableRecord
100
AcDbBlockTableRecord
  2
Group22
340
0
102
{BLKREFS
331
C62
331
D74
331
D74
331
C62
102
}
 70
     0
280
     1
281
     0
  0
BLOCK_RECORD
  5
7DA
330
1
100
AcDbSymbolTableRecord
100
AcDbBlockTableRecord
  2
Group23
340
0
102
{BLKREFS
331
C6A
331
D76
331
D76
331
C6A
102
}
 70
     0
280
     1
281
     0
  0
BLOCK_RECORD
  5
809
330
1
100
AcDbSymbolTableRecord
100
AcDbBlockTableRecord
  2
Group24
340
0
102
{BLKREFS
331
C6B
331
D77
331
D77
331
C6B
102
}
 70
     0
280
     1
281
     0
  0
BLOCK_RECORD
  5
838
330
1
100
AcDbSymbolTableRecord
100
AcDbBlockTableRecord
  2
Group25
340
0
102
{BLKREFS
331
C6C
331
D78
331
D78
331
C6C
102
}
 70
     0
280
     1
281
     0
  0
BLOCK_RECORD
  5
867
330
1
100
AcDbSymbolTableRecord
100
AcDbBlockTableRecord
  2
Group26
340
0
102
{BLKREFS
331
C6D
331
D79
331
D79
331
C6D
102
}
 70
     0
280
     1
281
     0
  0
BLOCK_RECORD
  5
896
330
1
100
AcDbSymbolTableRecord
100
AcDbBlockTableRecord
  2
Group27
340
0
102
{BLKREFS
331
C92
331
C92
102
}
 70
     0
280
     1
281
     0
  0
BLOCK_RECORD
  5
8BE
330
1
100
AcDbSymbolTableRecord
100
AcDbBlockTableRecord
  2
Group28
340
0
102
{BLKREFS
331
C93
331
D7E
331
D7E
331
C93
102
}
 70
     0
280
     1
281
     0
  0
BLOCK_RECORD
  5
938
330
1
100
AcDbSymbolTableRecord
100
AcDbBlockTableRecord
  2
Group29
340
0
 70
     0
280
     1
281
     0
  0
ENDTAB
  0
ENDSEC
  0
SECTION
  2
BLOCKS
  0
BLOCK
  5
CC2
330
1D
100
AcDbEntity
  8
0
  6
Continuous
100
AcDbBlockBegin
  2
*Model_Space
 70
     0
 10
0.0
 20
0.0
 30
0.0
  3
*Model_Space
  1
Acad:XRef
  0
ENDBLK
  5
CC3
330
1D
100
AcDbEntity
  8
0
  6
Continuous
100
AcDbBlockEnd
  0
BLOCK
  5
CC0
330
1B
100
AcDbEntity
 67
     1
  8
0
  6
Continuous
100
AcDbBlockBegin
  2
*Paper_Space
 70
     0
 10
0.0
 20
0.0
 30
0.0
  3
*Paper_Space
  1
Acad:XRef
  0
ENDBLK
  5
CC1
330
1B
100
AcDbEntity
 67
     1
  8
0
  6
Continuous
100
AcDbBlockEnd
  0
BLOCK
  5
2F
330
30
100
AcDbEntity
  8
O
100
AcDbBlockBegin
  2
Group1
 70
     0
 10
0.0
 20
0.0
 30
0.0
  3
Group1
  1

  0
LWPOLYLINE
  5
31
330
30
100
AcDbEntity
  8
O
  6
Continuous
 62
     7
100
AcDbPolyline
 90
        3
 70
     0
 43
0.0139
 10
159.0311
 20
-8.5314
 10
159.1894
 20
-8.4657
 10
159.255
 20
-8.3069
  0
LWPOLYLINE
  5
36
330
30
100
AcDbEntity
  8
O
  6
Continuous
 62
     7
100
AcDbPolyline
 90
        3
 70
     0
 43
0.0139
 10
158.1804
 20
-8.5314
 10
158.022
 20
-8.597
 10
157.9564
 20
-8.7558
  0
LWPOLYLINE
  5
3B
330
30
100
AcDbEntity
  8
O
  6
Continuous
 62
     7
100
AcDbPolyline
 90
        3
 70
     0
 43
0.0139
 10
157.7325
 20
-10.3269
 10
157.8908
 20
-10.2612
 10
157.9564
 20
-10.1024
  0
LWPOLYLINE
  5
40
330
30
100
AcDbEntity
  8
O
  6
Continuous
 62
     7
100
AcDbPolyline
 90
        3
 70
     0
 43
0.0139
 10
154.9674
 20
-10.3269
 10
154.809
 20
-10.3925
 10
154.7434
 20
-10.5513
  0
LWPOLYLINE
  5
45
330
30
100
AcDbEntity
  8
O
  6
Continuous
 62
     7
100
AcDbPolyline
 90
        3
 70
     0
 43
0.0139
 10
154.7434
 20
-18.5975
 10
154.809
 20
-18.7562
 10
154.9673
 20
-18.8219
  0
LWPOLYLINE
  5
4A
330
30
100
AcDbEntity
  8
O
  6
Continuous
 62
     7
100
AcDbPolyline
 90
        3
 70
     0
 43
0.0139
 10
156.1873
 20
-19.0464
 10
156.1218
 20
-18.8877
 10
155.9635
 20
-18.8219
  0
LWPOLYLINE
  5
4F
330
30
100
AcDbEntity
  8
O
  6
Continuous
 62
     7
100
AcDbPolyline
 90
        3
 70
     0
 43
0.0139
 10
156.1873
 20
-19.3381
 10
156.2529
 20
-19.4969
 10
156.4112
 20
-19.5626
  0
LWPOLYLINE
  5
54
330
30
100
AcDbEntity
  8
O
  6
Continuous
 62
     7
100
AcDbPolyline
 90
        3
 70
     0
 43
0.0139
 10
164.2255
 20
-8.3069
 10
164.2911
 20
-8.4657
 10
164.4494
 20
-8.5314
  0
LWPOLYLINE
  5
59
330
30
100
AcDbEntity
  8
O
  6
Continuous
 62
     7
100
AcDbPolyline
 90
        3
 70
     0
 43
0.0139
 10
165.5242
 20
-8.7558
 10
165.4587
 20
-8.5971
 10
165.3003
 20
-8.5314
  0
LWPOLYLINE
  5
5E
330
30
100
AcDbEntity
  8
O
  6
Continuous
 62
     7
100
AcDbPolyline
 90
        3
 70
     0
 43
0.0139
 10
165.5242
 20
-10.1024
 10
165.5897
 20
-10.2612
 10
165.7481
 20
-10.3269
  0
LWPOLYLINE
  5
63
330
30
100
AcDbEntity
  8
O
  6
Continuous
 62
     7
100
AcDbPolyline
 90
        3
 70
     0
 43
0.0139
 10
168.7371
 20
-10.5513
 10
168.6716
 20
-10.3926
 10
168.5133
 20
-10.3269
  0
LWPOLYLINE
  5
68
330
30
100
AcDbEntity
  8
O
  6
Continuous
 62
     7
100
AcDbPolyline
 90
        3
 70
     0
 43
0.0139
 10
168.5132
 20
-18.8219
 10
168.6716
 20
-18.7562
 10
168.7371
 20
-18.5975
  0
LWPOLYLINE
  5
6D
330
30
100
AcDbEntity
  8
O
  6
Continuous
 62
     7
100
AcDbPolyline
 90
        3
 70
     0
 43
0.0139
 10
167.527
 20
-18.8219
 10
167.3686
 20
-18.8876
 10
167.303
 20
-19.0463
  0
LWPOLYLINE
  5
72
330
30
100
AcDbEntity
  8
O
  6
Continuous
 62
     7
100
AcDbPolyline
 90
        3
 70
     0
 43
0.0139
 10
167.0791
 20
-19.5626
 10
167.2375
 20
-19.4969
 10
167.303
 20
-19.3381
  0
LWPOLYLINE
  5
77
330
30
100
AcDbEntity
  8
O
  6
Continuous
 62
     7
100
AcDbPolyline
 90
        3
 70
     0
 43
0.0139
 10
154.7435
 20
-13.8955
 10
154.5419
 20
-14.1135
 10
154.7434
 20
-14.3316
  0
LWPOLYLINE
  5
7C
330
30
100
AcDbEntity
  8
O
  6
Continuous
 62
     7
100
AcDbPolyline
 90
        6
 70
     0
 43
0.0139
 10
168.7371
 20
-14.3118
 10
168.8856
 20
-14.2518
 10
168.9473
 20
-14.1037
 10
168.9473
 20
-14.1037
 10
168.8857
 20
-13.9555
 10
168.7372
 20
-13.8955
  0
LWPOLYLINE
  5
84
330
30
100
AcDbEntity
  8
O
  6
Continuous
 62
     7
100
AcDbPolyline
 90
        3
 70
     0
 43
0.0139
 10
154.7435
 20
-16.0404
 10
154.5419
 20
-16.2584
 10
154.7434
 20
-16.4765
  0
LWPOLYLINE
  5
89
330
30
100
AcDbEntity
  8
O
  6
Continuous
 62
     7
100
AcDbPolyline
 90
        6
 70
     0
 43
0.0139
 10
168.7371
 20
-16.4765
 10
168.8856
 20
-16.4165
 10
168.9473
 20
-16.2684
 10
168.9473
 20
-16.2684
 10
168.8857
 20
-16.1203
 10
168.7372
 20
-16.0602
  0
LWPOLYLINE
  5
91
330
30
100
AcDbEntity
  8
O
  6
Continuous
 62
     7
100
AcDbPolyline
 90
        2
 70
     0
 43
0.0139
 10
154.7434
 20
-16.0404
 10
154.7434
 20
-14.3316
  0
LWPOLYLINE
  5
95
330
30
100
AcDbEntity
  8
O
  6
Continuous
 62
     7
100
AcDbPolyline
 90
        2
 70
     0
 43
0.0139
 10
168.7422
 20
-16.0602
 10
168.7397
 20
-14.3118
  0
LWPOLYLINE
  5
99
330
30
100
AcDbEntity
  8
O
  6
Continuous
 62
     7
100
AcDbPolyline
 90
        2
 70
     0
 43
0.0139
 10
159.255
 20
-7.3867
 10
159.255
 20
-8.3069
  0
LWPOLYLINE
  5
9D
330
30
100
AcDbEntity
  8
O
  6
Continuous
 62
     7
100
AcDbPolyline
 90
        2
 70
     0
 43
0.0139
 10
159.0311
 20
-8.5314
 10
158.1803
 20
-8.5314
  0
LWPOLYLINE
  5
A1
330
30
100
AcDbEntity
  8
O
  6
Continuous
 62
     7
100
AcDbPolyline
 90
        2
 70
     0
 43
0.0139
 10
157.9564
 20
-8.7558
 10
157.9564
 20
-10.1024
  0
LWPOLYLINE
  5
A5
330
30
100
AcDbEntity
  8
O
  6
Continuous
 62
     7
100
AcDbPolyline
 90
        2
 70
     0
 43
0.0139
 10
157.7325
 20
-10.3269
 10
154.9673
 20
-10.3269
  0
LWPOLYLINE
  5
A9
330
30
100
AcDbEntity
  8
O
  6
Continuous
 62
     7
100
AcDbPolyline
 90
        2
 70
     0
 43
0.0139
 10
154.7434
 20
-13.8955
 10
154.7434
 20
-10.5513
  0
LWPOLYLINE
  5
AD
330
30
100
AcDbEntity
  8
O
  6
Continuous
 62
     7
100
AcDbPolyline
 90
        2
 70
     0
 43
0.0139
 10
154.7434
 20
-16.4765
 10
154.7434
 20
-18.5975
  0
LWPOLYLINE
  5
B1
330
30
100
AcDbEntity
  8
O
  6
Continuous
 62
     7
100
AcDbPolyline
 90
        2
 70
     0
 43
0.0139
 10
155.9634
 20
-18.8219
 10
154.9673
 20
-18.8219
  0
LWPOLYLINE
  5
B5
330
30
100
AcDbEntity
  8
O
  6
Continuous
 62
     7
100
AcDbPolyline
 90
        2
 70
     0
 43
0.0139
 10
156.1873
 20
-19.3381
 10
156.1873
 20
-19.0464
  0
LWPOLYLINE
  5
B9
330
30
100
AcDbEntity
  8
O
  6
Continuous
 62
     7
100
AcDbPolyline
 90
        2
 70
     0
 43
0.0139
 10
167.0791
 20
-19.5626
 10
156.4112
 20
-19.5626
  0
LWPOLYLINE
  5
BD
330
30
100
AcDbEntity
  8
O
  6
Continuous
 62
     7
100
AcDbPolyline
 90
        2
 70
     0
 43
0.0139
 10
164.2255
 20
-7.3867
 10
164.2255
 20
-8.3069
  0
LWPOLYLINE
  5
C1
330
30
100
AcDbEntity
  8
O
  6
Continuous
 62
     7
100
AcDbPolyline
 90
        2
 70
     0
 43
0.0139
 10
164.4494
 20
-8.5314
 10
165.3003
 20
-8.5314
  0
LWPOLYLINE
  5
C5
330
30
100
AcDbEntity
  8
O
  6
Continuous
 62
     7
100
AcDbPolyline
 90
        2
 70
     0
 43
0.0139
 10
165.5242
 20
-8.7558
 10
165.5242
 20
-10.1024
  0
LWPOLYLINE
  5
C9
330
30
100
AcDbEntity
  8
O
  6
Continuous
 62
     7
100
AcDbPolyline
 90
        2
 70
     0
 43
0.0139
 10
165.7481
 20
-10.3269
 10
168.5132
 20
-10.3269
  0
LWPOLYLINE
  5
CD
330
30
100
AcDbEntity
  8
O
  6
Continuous
 62
     7
100
AcDbPolyline
 90
        2
 70
     0
 43
0.0139
 10
168.7371
 20
-13.8955
 10
168.7371
 20
-10.5513
  0
LWPOLYLINE
  5
D1
330
30
100
AcDbEntity
  8
O
  6
Continuous
 62
     7
100
AcDbPolyline
 90
        2
 70
     0
 43
0.0139
 10
168.7371
 20
-16.4765
 10
168.7371
 20
-18.5975
  0
LWPOLYLINE
  5
D5
330
30
100
AcDbEntity
  8
O
  6
Continuous
 62
     7
100
AcDbPolyline
 90
        2
 70
     0
 43
0.0139
 10
168.5132
 20
-18.8219
 10
167.5269
 20
-18.8219
  0
LWPOLYLINE
  5
D9
330
30
100
AcDbEntity
  8
O
  6
Continuous
 62
     7
100
AcDbPolyline
 90
        2
 70
     0
 43
0.0139
 10
167.303
 20
-19.0464
 10
167.303
 20
-19.3381
  0
LWPOLYLINE
  5
DD
330
30
100
AcDbEntity
  8
O
  6
Continuous
 62
     7
100
AcDbPolyline
 90
        2
 70
     0
 43
0.0139
 10
153.5282
 20
-7.3311
 10
169.8728
 20
-7.3311
  0
LWPOLYLINE
  5
E1
330
30
100
AcDbEntity
  8
O
  6
Continuous
 62
     7
100
AcDbPolyline
 90
        2
 70
     0
 43
0.0139
 10
153.5282
 20
-20.6853
 10
153.5282
 20
-7.3311
  0
LWPOLYLINE
  5
E5
330
30
100
AcDbEntity
  8
O
  6
Continuous
 62
     7
100
AcDbPolyline
 90
        2
 70
     0
 43
0.0139
 10
169.8728
 20
-20.6853
 10
153.5282
 20
-20.6853
  0
LWPOLYLINE
  5
E9
330
30
100
AcDbEntity
  8
O
  6
Continuous
 62
     7
100
AcDbPolyline
 90
        2
 70
     0
 43
0.0139
 10
169.8728
 20
-7.3311
 10
169.8728
 20
-20.6853
  0
ENDBLK
  5
ED
330
30
100
AcDbEntity
  8
O
100
AcDbBlockEnd
  0
BLOCK
  5
EE
330
EF
100
AcDbEntity
  8
O
100
AcDbBlockBegin
  2
Group2
 70
     0
 10
0.0
 20
0.0
 30
0.0
  3
Group2
  1

  0
INSERT
  5
F0
330
EF
100
AcDbEntity
  8
O
100
AcDbBlockReference
  2
Group1
 10
0.0
 20
0.0
 30
0.0
  0
LWPOLYLINE
  5
F1
330
EF
100
AcDbEntity
  8
O
  6
Continuous
 62
     7
100
AcDbPolyline
 90
        5
 70
     0
 43
0.0069
 10
156.7988
 20
-16.8267
 10
157.4892
 20
-16.8267
 10
157.4892
 20
-19.6942
 10
156.7988
 20
-19.6942
 10
156.7988
 20
-16.8267
  0
LWPOLYLINE
  5
F8
330
EF
100
AcDbEntity
  8
O
  6
Continuous
 62
     7
100
AcDbPolyline
 90
        5
 70
     0
 43
0.0069
 10
158.141
 20
-16.8267
 10
158.8314
 20
-16.8267
 10
158.8314
 20
-19.6942
 10
158.141
 20
-19.6942
 10
158.141
 20
-16.8267
  0
LWPOLYLINE
  5
FF
330
EF
100
AcDbEntity
  8
O
  6
Continuous
 62
     7
100
AcDbPolyline
 90
        5
 70
     0
 43
0.0069
 10
159.4831
 20
-16.8267
 10
160.1736
 20
-16.8267
 10
160.1736
 20
-19.6942
 10
159.4831
 20
-19.6942
 10
159.4831
 20
-16.8267
  0
LWPOLYLINE
  5
106
330
EF
100
AcDbEntity
  8
O
  6
Continuous
 62
     7
100
AcDbPolyline
 90
        5
 70
     0
 43
0.0069
 10
160.8253
 20
-16.8267
 10
161.5158
 20
-16.8267
 10
161.5158
 20
-19.6942
 10
160.8253
 20
-19.6942
 10
160.8253
 20
-16.8267
  0
LWPOLYLINE
  5
10D
330
EF
100
AcDbEntity
  8
O
  6
Continuous
 62
     7
100
AcDbPolyline
 90
        5
 70
     0
 43
0.0069
 10
162.1675
 20
-16.8267
 10
162.858
 20
-16.8267
 10
162.858
 20
-19.6942
 10
162.1675
 20
-19.6942
 10
162.1675
 20
-16.8267
  0
LWPOLYLINE
  5
114
330
EF
100
AcDbEntity
  8
O
  6
Continuous
 62
     7
100
AcDbPolyline
 90
        5
 70
     0
 43
0.0069
 10
163.5097
 20
-16.8267
 10
164.2002
 20
-16.8267
 10
164.2002
 20
-19.6942
 10
163.5097
 20
-19.6942
 10
163.5097
 20
-16.8267
  0
LWPOLYLINE
  5
11B
330
EF
100
AcDbEntity
  8
O
  6
Continuous
 62
     7
100
AcDbPolyline
 90
        5
 70
     0
 43
0.0069
 10
164.8519
 20
-16.8267
 10
165.5424
 20
-16.8267
 10
165.5424
 20
-19.6942
 10
164.8519
 20
-19.6942
 10
164.8519
 20
-16.8267
  0
LWPOLYLINE
  5
122
330
EF
100
AcDbEntity
  8
O
  6
Continuous
 62
     7
100
AcDbPolyline
 90
        5
 70
     0
 43
0.0069
 10
166.1941
 20
-16.8267
 10
166.8846
 20
-16.8267
 10
166.8846
 20
-19.6942
 10
166.1941
 20
-19.6942
 10
166.1941
 20
-16.8267
  0
ENDBLK
  5
129
330
EF
100
AcDbEntity
  8
O
100
AcDbBlockEnd
  0
BLOCK
  5
12A
330
12B
100
AcDbEntity
  8
O
100
AcDbBlockBegin
  2
Group3
 70
     0
 10
0.0
 20
0.0
 30
0.0
  3
Group3
  1

  0
LWPOLYLINE
  5
12C
330
12B
100
AcDbEntity
  8
O
  6
Continuous
 62
     7
100
AcDbPolyline
 90
        3
 70
     0
 43
0.0139
 10
142.5206
 20
-8.5314
 10
142.679
 20
-8.4657
 10
142.7445
 20
-8.3069
  0
LWPOLYLINE
  5
131
330
12B
100
AcDbEntity
  8
O
  6
Continuous
 62
     7
100
AcDbPolyline
 90
        3
 70
     0
 43
0.0139
 10
141.6699
 20
-8.5314
 10
141.5115
 20
-8.597
 10
141.4459
 20
-8.7558
  0
LWPOLYLINE
  5
136
330
12B
100
AcDbEntity
  8
O
  6
Continuous
 62
     7
100
AcDbPolyline
 90
        3
 70
     0
 43
0.0139
 10
141.222
 20
-10.3269
 10
141.3803
 20
-10.2612
 10
141.4459
 20
-10.1024
  0
LWPOLYLINE
  5
13B
330
12B
100
AcDbEntity
  8
O
  6
Continuous
 62
     7
100
AcDbPolyline
 90
        3
 70
     0
 43
0.0139
 10
138.4569
 20
-10.3269
 10
138.2985
 20
-10.3925
 10
138.2329
 20
-10.5513
  0
LWPOLYLINE
  5
140
330
12B
100
AcDbEntity
  8
O
  6
Continuous
 62
     7
100
AcDbPolyline
 90
        3
 70
     0
 43
0.0139
 10
138.2329
 20
-18.5975
 10
138.2985
 20
-18.7562
 10
138.4568
 20
-18.8219
  0
LWPOLYLINE
  5
145
330
12B
100
AcDbEntity
  8
O
  6
Continuous
 62
     7
100
AcDbPolyline
 90
        3
 70
     0
 43
0.0139
 10
139.6768
 20
-19.0464
 10
139.6113
 20
-18.8877
 10
139.453
 20
-18.8219
  0
LWPOLYLINE
  5
14A
330
12B
100
AcDbEntity
  8
O
  6
Continuous
 62
     7
100
AcDbPolyline
 90
        3
 70
     0
 43
0.0139
 10
139.6768
 20
-19.3381
 10
139.7424
 20
-19.4969
 10
139.9007
 20
-19.5626
  0
LWPOLYLINE
  5
14F
330
12B
100
AcDbEntity
  8
O
  6
Continuous
 62
     7
100
AcDbPolyline
 90
        3
 70
     0
 43
0.0139
 10
147.7151
 20
-8.3069
 10
147.7806
 20
-8.4657
 10
147.939
 20
-8.5314
  0
LWPOLYLINE
  5
154
330
12B
100
AcDbEntity
  8
O
  6
Continuous
 62
     7
100
AcDbPolyline
 90
        3
 70
     0
 43
0.0139
 10
149.0137
 20
-8.7558
 10
148.9482
 20
-8.5971
 10
148.7899
 20
-8.5314
  0
LWPOLYLINE
  5
159
330
12B
100
AcDbEntity
  8
O
  6
Continuous
 62
     7
100
AcDbPolyline
 90
        3
 70
     0
 43
0.0139
 10
149.0137
 20
-10.1024
 10
149.0792
 20
-10.2612
 10
149.2376
 20
-10.3269
  0
LWPOLYLINE
  5
15E
330
12B
100
AcDbEntity
  8
O
  6
Continuous
 62
     7
100
AcDbPolyline
 90
        3
 70
     0
 43
0.0139
 10
152.2266
 20
-10.5513
 10
152.1611
 20
-10.3926
 10
152.0028
 20
-10.3269
  0
LWPOLYLINE
  5
163
330
12B
100
AcDbEntity
  8
O
  6
Continuous
 62
     7
100
AcDbPolyline
 90
        3
 70
     0
 43
0.0139
 10
152.0027
 20
-18.8219
 10
152.1611
 20
-18.7562
 10
152.2266
 20
-18.5975
  0
LWPOLYLINE
  5
168
330
12B
100
AcDbEntity
  8
O
  6
Continuous
 62
     7
100
AcDbPolyline
 90
        3
 70
     0
 43
0.0139
 10
151.0165
 20
-18.8219
 10
150.8581
 20
-18.8876
 10
150.7925
 20
-19.0463
  0
LWPOLYLINE
  5
16D
330
12B
100
AcDbEntity
  8
O
  6
Continuous
 62
     7
100
AcDbPolyline
 90
        3
 70
     0
 43
0.0139
 10
150.5686
 20
-19.5626
 10
150.727
 20
-19.4969
 10
150.7925
 20
-19.3381
  0
LWPOLYLINE
  5
172
330
12B
100
AcDbEntity
  8
O
  6
Continuous
 62
     7
100
AcDbPolyline
 90
        3
 70
     0
 43
0.0139
 10
138.233
 20
-13.8955
 10
138.0314
 20
-14.1135
 10
138.2329
 20
-14.3316
  0
LWPOLYLINE
  5
177
330
12B
100
AcDbEntity
  8
O
  6
Continuous
 62
     7
100
AcDbPolyline
 90
        6
 70
     0
 43
0.0139
 10
152.2266
 20
-14.3118
 10
152.3751
 20
-14.2518
 10
152.4368
 20
-14.1037
 10
152.4368
 20
-14.1037
 10
152.3752
 20
-13.9555
 10
152.2267
 20
-13.8955
  0
LWPOLYLINE
  5
17F
330
12B
100
AcDbEntity
  8
O
  6
Continuous
 62
     7
100
AcDbPolyline
 90
        3
 70
     0
 43
0.0139
 10
138.233
 20
-16.0404
 10
138.0314
 20
-16.2584
 10
138.2329
 20
-16.4765
  0
LWPOLYLINE
  5
184
330
12B
100
AcDbEntity
  8
O
  6
Continuous
 62
     7
100
AcDbPolyline
 90
        6
 70
     0
 43
0.0139
 10
152.2266
 20
-16.4765
 10
152.3751
 20
-16.4165
 10
152.4368
 20
-16.2684
 10
152.4368
 20
-16.2684
 10
152.3752
 20
-16.1203
 10
152.2267
 20
-16.0602
  0
LWPOLYLINE
  5
18C
330
12B
100
AcDbEntity
  8
O
  6
Continuous
 62
     7
100
AcDbPolyline
 90
        2
 70
     0
 43
0.0139
 10
138.2329
 20
-16.0404
 10
138.2329
 20
-14.3316
  0
LWPOLYLINE
  5
190
330
12B
100
AcDbEntity
  8
O
  6
Continuous
 62
     7
100
AcDbPolyline
 90
        2
 70
     0
 43
0.0139
 10
152.2317
 20
-16.0602
 10
152.2292
 20
-14.3118
  0
LWPOLYLINE
  5
194
330
12B
100
AcDbEntity
  8
O
  6
Continuous
 62
     7
100
AcDbPolyline
 90
        2
 70
     0
 43
0.0139
 10
142.7445
 20
-7.3867
 10
142.7445
 20
-8.3069
  0
LWPOLYLINE
  5
198
330
12B
100
AcDbEntity
  8
O
  6
Continuous
 62
     7
100
AcDbPolyline
 90
        2
 70
     0
 43
0.0139
 10
142.5206
 20
-8.5314
 10
141.6698
 20
-8.5314
  0
LWPOLYLINE
  5
19C
330
12B
100
AcDbEntity
  8
O
  6
Continuous
 62
     7
100
AcDbPolyline
 90
        2
 70
     0
 43
0.0139
 10
141.4459
 20
-8.7558
 10
141.4459
 20
-10.1024
  0
LWPOLYLINE
  5
1A0
330
12B
100
AcDbEntity
  8
O
  6
Continuous
 62
     7
100
AcDbPolyline
 90
        2
 70
     0
 43
0.0139
 10
141.222
 20
-10.3269
 10
138.4568
 20
-10.3269
  0
LWPOLYLINE
  5
1A4
330
12B
100
AcDbEntity
  8
O
  6
Continuous
 62
     7
100
AcDbPolyline
 90
        2
 70
     0
 43
0.0139
 10
138.2329
 20
-13.8955
 10
138.2329
 20
-10.5513
  0
LWPOLYLINE
  5
1A8
330
12B
100
AcDbEntity
  8
O
  6
Continuous
 62
     7
100
AcDbPolyline
 90
        2
 70
     0
 43
0.0139
 10
138.2329
 20
-16.4765
 10
138.2329
 20
-18.5975
  0
LWPOLYLINE
  5
1AC
330
12B
100
AcDbEntity
  8
O
  6
Continuous
 62
     7
100
AcDbPolyline
 90
        2
 70
     0
 43
0.0139
 10
139.4529
 20
-18.8219
 10
138.4568
 20
-18.8219
  0
LWPOLYLINE
  5
1B0
330
12B
100
AcDbEntity
  8
O
  6
Continuous
 62
     7
100
AcDbPolyline
 90
        2
 70
     0
 43
0.0139
 10
139.6768
 20
-19.3381
 10
139.6768
 20
-19.0464
  0
LWPOLYLINE
  5
1B4
330
12B
100
AcDbEntity
  8
O
  6
Continuous
 62
     7
100
AcDbPolyline
 90
        2
 70
     0
 43
0.0139
 10
150.5686
 20
-19.5626
 10
139.9007
 20
-19.5626
  0
LWPOLYLINE
  5
1B8
330
12B
100
AcDbEntity
  8
O
  6
Continuous
 62
     7
100
AcDbPolyline
 90
        2
 70
     0
 43
0.0139
 10
147.7151
 20
-7.3867
 10
147.7151
 20
-8.3069
  0
LWPOLYLINE
  5
1BC
330
12B
100
AcDbEntity
  8
O
  6
Continuous
 62
     7
100
AcDbPolyline
 90
        2
 70
     0
 43
0.0139
 10
147.939
 20
-8.5314
 10
148.7898
 20
-8.5314
  0
LWPOLYLINE
  5
1C0
330
12B
100
AcDbEntity
  8
O
  6
Continuous
 62
     7
100
AcDbPolyline
 90
        2
 70
     0
 43
0.0139
 10
149.0137
 20
-8.7558
 10
149.0137
 20
-10.1024
  0
LWPOLYLINE
  5
1C4
330
12B
100
AcDbEntity
  8
O
  6
Continuous
 62
     7
100
AcDbPolyline
 90
        2
 70
     0
 43
0.0139
 10
149.2376
 20
-10.3269
 10
152.0027
 20
-10.3269
  0
LWPOLYLINE
  5
1C8
330
12B
100
AcDbEntity
  8
O
  6
Continuous
 62
     7
100
AcDbPolyline
 90
        2
 70
     0
 43
0.0139
 10
152.2266
 20
-13.8955
 10
152.2266
 20
-10.5513
  0
LWPOLYLINE
  5
1CC
330
12B
100
AcDbEntity
  8
O
  6
Continuous
 62
     7
100
AcDbPolyline
 90
        2
 70
     0
 43
0.0139
 10
152.2266
 20
-16.4765
 10
152.2266
 20
-18.5975
  0
LWPOLYLINE
  5
1D0
330
12B
100
AcDbEntity
  8
O
  6
Continuous
 62
     7
100
AcDbPolyline
 90
        2
 70
     0
 43
0.0139
 10
152.0027
 20
-18.8219
 10
151.0164
 20
-18.8219
  0
LWPOLYLINE
  5
1D4
330
12B
100
AcDbEntity
  8
O
  6
Continuous
 62
     7
100
AcDbPolyline
 90
        2
 70
     0
 43
0.0139
 10
150.7925
 20
-19.0464
 10
150.7925
 20
-19.3381
  0
LWPOLYLINE
  5
1D8
330
12B
100
AcDbEntity
  8
O
  6
Continuous
 62
     7
100
AcDbPolyline
 90
        2
 70
     0
 43
0.0139
 10
137.0177
 20
-7.3311
 10
153.3623
 20
-7.3311
  0
LWPOLYLINE
  5
1DC
330
12B
100
AcDbEntity
  8
O
  6
Continuous
 62
     7
100
AcDbPolyline
 90
        2
 70
     0
 43
0.0139
 10
137.0177
 20
-20.6853
 10
137.0177
 20
-7.3311
  0
LWPOLYLINE
  5
1E0
330
12B
100
AcDbEntity
  8
O
  6
Continuous
 62
     7
100
AcDbPolyline
 90
        2
 70
     0
 43
0.0139
 10
153.3623
 20
-20.6853
 10
137.0177
 20
-20.6853
  0
LWPOLYLINE
  5
1E4
330
12B
100
AcDbEntity
  8
O
  6
Continuous
 62
     7
100
AcDbPolyline
 90
        2
 70
     0
 43
0.0139
 10
153.3623
 20
-7.3311
 10
153.3623
 20
-20.6853
  0
ENDBLK
  5
1E8
330
12B
100
AcDbEntity
  8
O
100
AcDbBlockEnd
  0
BLOCK
  5
1E9
330
1EA
100
AcDbEntity
  8
O
100
AcDbBlockBegin
  2
Group4
 70
     0
 10
0.0
 20
0.0
 30
0.0
  3
Group4
  1

  0
INSERT
  5
1EB
330
1EA
100
AcDbEntity
  8
O
100
AcDbBlockReference
  2
Group3
 10
0.0
 20
0.0
 30
0.0
  0
LWPOLYLINE
  5
1EC
330
1EA
100
AcDbEntity
  8
O
  6
Continuous
 62
     7
100
AcDbPolyline
 90
        5
 70
     0
 43
0.0069
 10
140.2883
 20
-16.8267
 10
140.9787
 20
-16.8267
 10
140.9787
 20
-19.6942
 10
140.2883
 20
-19.6942
 10
140.2883
 20
-16.8267
  0
LWPOLYLINE
  5
1F3
330
1EA
100
AcDbEntity
  8
O
  6
Continuous
 62
     7
100
AcDbPolyline
 90
        5
 70
     0
 43
0.0069
 10
141.6305
 20
-16.8267
 10
142.3209
 20
-16.8267
 10
142.3209
 20
-19.6942
 10
141.6305
 20
-19.6942
 10
141.6305
 20
-16.8267
  0
LWPOLYLINE
  5
1FA
330
1EA
100
AcDbEntity
  8
O
  6
Continuous
 62
     7
100
AcDbPolyline
 90
        5
 70
     0
 43
0.0069
 10
142.9727
 20
-16.8267
 10
143.6631
 20
-16.8267
 10
143.6631
 20
-19.6942
 10
142.9727
 20
-19.6942
 10
142.9727
 20
-16.8267
  0
LWPOLYLINE
  5
201
330
1EA
100
AcDbEntity
  8
O
  6
Continuous
 62
     7
100
AcDbPolyline
 90
        5
 70
     0
 43
0.0069
 10
144.3148
 20
-16.8267
 10
145.0053
 20
-16.8267
 10
145.0053
 20
-19.6942
 10
144.3148
 20
-19.6942
 10
144.3148
 20
-16.8267
  0
LWPOLYLINE
  5
208
330
1EA
100
AcDbEntity
  8
O
  6
Continuous
 62
     7
100
AcDbPolyline
 90
        5
 70
     0
 43
0.0069
 10
145.657
 20
-16.8267
 10
146.3475
 20
-16.8267
 10
146.3475
 20
-19.6942
 10
145.657
 20
-19.6942
 10
145.657
 20
-16.8267
  0
LWPOLYLINE
  5
20F
330
1EA
100
AcDbEntity
  8
O
  6
Continuous
 62
     7
100
AcDbPolyline
 90
        5
 70
     0
 43
0.0069
 10
146.9992
 20
-16.8267
 10
147.6897
 20
-16.8267
 10
147.6897
 20
-19.6942
 10
146.9992
 20
-19.6942
 10
146.9992
 20
-16.8267
  0
LWPOLYLINE
  5
216
330
1EA
100
AcDbEntity
  8
O
  6
Continuous
 62
     7
100
AcDbPolyline
 90
        5
 70
     0
 43
0.0069
 10
148.3414
 20
-16.8267
 10
149.0319
 20
-16.8267
 10
149.0319
 20
-19.6942
 10
148.3414
 20
-19.6942
 10
148.3414
 20
-16.8267
  0
LWPOLYLINE
  5
21D
330
1EA
100
AcDbEntity
  8
O
  6
Continuous
 62
     7
100
AcDbPolyline
 90
        5
 70
     0
 43
0.0069
 10
149.6836
 20
-16.8267
 10
150.3741
 20
-16.8267
 10
150.3741
 20
-19.6942
 10
149.6836
 20
-19.6942
 10
149.6836
 20
-16.8267
  0
ENDBLK
  5
224
330
1EA
100
AcDbEntity
  8
O
100
AcDbBlockEnd
  0
BLOCK
  5
225
330
226
100
AcDbEntity
  8
O
100
AcDbBlockBegin
  2
Group5
 70
     0
 10
0.0
 20
0.0
 30
0.0
  3
Group5
  1

  0
INSERT
  5
227
330
226
100
AcDbEntity
  8
O
100
AcDbBlockReference
  2
Group2
 10
0.0
 20
0.0
 30
0.0
  0
INSERT
  5
228
330
226
100
AcDbEntity
  8
O
100
AcDbBlockReference
  2
Group4
 10
0.0
 20
0.0
 30
0.0
  0
ENDBLK
  5
229
330
226
100
AcDbEntity
  8
O
100
AcDbBlockEnd
  0
BLOCK
  5
22A
330
22B
100
AcDbEntity
  8
O
100
AcDbBlockBegin
  2
Group6
 70
     0
 10
0.0
 20
0.0
 30
0.0
  3
Group6
  1

  0
LWPOLYLINE
  5
22C
330
22B
100
AcDbEntity
  8
O
  6
Continuous
 62
     7
100
AcDbPolyline
 90
       12
 70
     0
 43
0.0139
 10
102.2677
 20
-10.8311
 10
101.9149
 20
-10.684
 10
101.7677
 20
-10.3311
 10
101.7677
 20
-10.3311
 10
101.9149
 20
-9.9782
 10
102.2677
 20
-9.8311
 10
102.2677
 20
-9.8311
 10
102.6206
 20
-9.9782
 10
102.7677
 20
-10.3311
 10
102.7677
 20
-10.3311
 10
102.6206
 20
-10.684
 10
102.2677
 20
-10.8311
  0
LWPOLYLINE
  5
23A
330
22B
100
AcDbEntity
  8
O
  6
Continuous
 62
     7
100
AcDbPolyline
 90
       12
 70
     0
 43
0.0139
 10
92.2677
 20
-10.8311
 10
91.9149
 20
-10.684
 10
91.7677
 20
-10.3311
 10
91.7677
 20
-10.3311
 10
91.9149
 20
-9.9782
 10
92.2677
 20
-9.8311
 10
92.2677
 20
-9.8311
 10
92.6206
 20
-9.9782
 10
92.7677
 20
-10.3311
 10
92.7677
 20
-10.3311
 10
92.6206
 20
-10.684
 10
92.2677
 20
-10.8311
  0
LWPOLYLINE
  5
248
330
22B
100
AcDbEntity
  8
O
  6
Continuous
 62
     7
100
AcDbPolyline
 90
       12
 70
     0
 43
0.0139
 10
100.2677
 20
-10.8311
 10
99.9149
 20
-10.684
 10
99.7677
 20
-10.3311
 10
99.7677
 20
-10.3311
 10
99.9149
 20
-9.9782
 10
100.2677
 20
-9.8311
 10
100.2677
 20
-9.8311
 10
100.6206
 20
-9.9782
 10
100.7677
 20
-10.3311
 10
100.7677
 20
-10.3311
 10
100.6206
 20
-10.684
 10
100.2677
 20
-10.8311
  0
LWPOLYLINE
  5
256
330
22B
100
AcDbEntity
  8
O
  6
Continuous
 62
     7
100
AcDbPolyline
 90
       12
 70
     0
 43
0.0139
 10
94.2677
 20
-10.8311
 10
93.9149
 20
-10.684
 10
93.7677
 20
-10.3311
 10
93.7677
 20
-10.3311
 10
93.9149
 20
-9.9782
 10
94.2677
 20
-9.8311
 10
94.2677
 20
-9.8311
 10
94.6206
 20
-9.9782
 10
94.7677
 20
-10.3311
 10
94.7677
 20
-10.3311
 10
94.6206
 20
-10.684
 10
94.2677
 20
-10.8311
  0
LWPOLYLINE
  5
264
330
22B
100
AcDbEntity
  8
O
  6
Continuous
 62
     7
100
AcDbPolyline
 90
       12
 70
     0
 43
0.0139
 10
96.2677
 20
-10.8311
 10
95.9149
 20
-10.684
 10
95.7677
 20
-10.3311
 10
95.7677
 20
-10.3311
 10
95.9149
 20
-9.9782
 10
96.2677
 20
-9.8311
 10
96.2677
 20
-9.8311
 10
96.6206
 20
-9.9782
 10
96.7677
 20
-10.3311
 10
96.7677
 20
-10.3311
 10
96.6206
 20
-10.684
 10
96.2677
 20
-10.8311
  0
LWPOLYLINE
  5
272
330
22B
100
AcDbEntity
  8
O
  6
Continuous
 62
     7
100
AcDbPolyline
 90
       12
 70
     0
 43
0.0139
 10
98.2677
 20
-10.8311
 10
97.9149
 20
-10.684
 10
97.7677
 20
-10.3311
 10
97.7677
 20
-10.3311
 10
97.9149
 20
-9.9782
 10
98.2677
 20
-9.8311
 10
98.2677
 20
-9.8311
 10
98.6206
 20
-9.9782
 10
98.7677
 20
-10.3311
 10
98.7677
 20
-10.3311
 10
98.6206
 20
-10.684
 10
98.2677
 20
-10.8311
  0
LWPOLYLINE
  5
280
330
22B
100
AcDbEntity
  8
O
  6
Continuous
 62
     7
100
AcDbPolyline
 90
        2
 70
     0
 43
0.0139
 10
104.2677
 20
-7.3311
 10
104.2677
 20
-12.8311
  0
LWPOLYLINE
  5
284
330
22B
100
AcDbEntity
  8
O
  6
Continuous
 62
     7
100
AcDbPolyline
 90
        2
 70
     0
 43
0.0139
 10
90.2677
 20
-7.3311
 10
90.2677
 20
-12.8311
  0
LWPOLYLINE
  5
288
330
22B
100
AcDbEntity
  8
O
  6
Continuous
 62
     7
100
AcDbPolyline
 90
        2
 70
     0
 43
0.0139
 10
90.2677
 20
-12.8311
 10
104.2677
 20
-12.8311
  0
LWPOLYLINE
  5
28C
330
22B
100
AcDbEntity
  8
O
  6
Continuous
 62
     7
100
AcDbPolyline
 90
        2
 70
     0
 43
0.0139
 10
104.2677
 20
-7.3311
 10
102.2677
 20
-7.3311
  0
LWPOLYLINE
  5
290
330
22B
100
AcDbEntity
  8
O
  6
Continuous
 62
     7
100
AcDbPolyline
 90
        2
 70
     0
 43
0.0139
 10
103.7677
 20
-7.8311
 10
103.7677
 20
-12.3311
  0
LWPOLYLINE
  5
294
330
22B
100
AcDbEntity
  8
O
  6
Continuous
 62
     7
100
AcDbPolyline
 90
        2
 70
     0
 43
0.0139
 10
103.7677
 20
-12.3311
 10
90.7677
 20
-12.3311
  0
LWPOLYLINE
  5
298
330
22B
100
AcDbEntity
  8
O
  6
Continuous
 62
     7
100
AcDbPolyline
 90
        2
 70
     0
 43
0.0139
 10
90.7677
 20
-7.8311
 10
90.7677
 20
-12.3311
  0
LWPOLYLINE
  5
29C
330
22B
100
AcDbEntity
  8
O
  6
Continuous
 62
     7
100
AcDbPolyline
 90
        2
 70
     0
 43
0.0139
 10
102.2677
 20
-7.3311
 10
102.2677
 20
-8.3311
  0
LWPOLYLINE
  5
2A0
330
22B
100
AcDbEntity
  8
O
  6
Continuous
 62
     7
100
AcDbPolyline
 90
        2
 70
     0
 43
0.0139
 10
103.7677
 20
-7.8311
 10
102.7677
 20
-7.8311
  0
LWPOLYLINE
  5
2A4
330
22B
100
AcDbEntity
  8
O
  6
Continuous
 62
     7
100
AcDbPolyline
 90
        2
 70
     0
 43
0.0139
 10
102.7677
 20
-7.8311
 10
102.7677
 20
-8.8311
  0
LWPOLYLINE
  5
2A8
330
22B
100
AcDbEntity
  8
O
  6
Continuous
 62
     7
100
AcDbPolyline
 90
        2
 70
     0
 43
0.0139
 10
102.7677
 20
-8.8311
 10
91.7677
 20
-8.8311
  0
LWPOLYLINE
  5
2AC
330
22B
100
AcDbEntity
  8
O
  6
Continuous
 62
     7
100
AcDbPolyline
 90
        2
 70
     0
 43
0.0139
 10
102.2677
 20
-8.3311
 10
92.2677
 20
-8.3311
  0
LWPOLYLINE
  5
2B0
330
22B
100
AcDbEntity
  8
O
  6
Continuous
 62
     7
100
AcDbPolyline
 90
        2
 70
     0
 43
0.0139
 10
92.2677
 20
-7.3311
 10
90.2677
 20
-7.3311
  0
LWPOLYLINE
  5
2B4
330
22B
100
AcDbEntity
  8
O
  6
Continuous
 62
     7
100
AcDbPolyline
 90
        2
 70
     0
 43
0.0139
 10
92.2677
 20
-7.3311
 10
92.2677
 20
-8.3311
  0
LWPOLYLINE
  5
2B8
330
22B
100
AcDbEntity
  8
O
  6
Continuous
 62
     7
100
AcDbPolyline
 90
        2
 70
     0
 43
0.0139
 10
91.7677
 20
-7.8311
 10
90.7677
 20
-7.8311
  0
LWPOLYLINE
  5
2BC
330
22B
100
AcDbEntity
  8
O
  6
Continuous
 62
     7
100
AcDbPolyline
 90
        2
 70
     0
 43
0.0139
 10
91.7677
 20
-7.8311
 10
91.7677
 20
-8.8311
  0
LWPOLYLINE
  5
2C0
330
22B
100
AcDbEntity
  8
O
  6
Continuous
 62
     7
100
AcDbPolyline
 90
        5
 70
     0
 43
0.0139
 10
98.2677
 20
-7.3311
 10
98.2677
 20
-8.3311
 10
96.2677
 20
-8.3311
 10
96.2677
 20
-7.3311
 10
98.2677
 20
-7.3311
  0
ENDBLK
  5
2C7
330
22B
100
AcDbEntity
  8
O
100
AcDbBlockEnd
  0
BLOCK
  5
2C8
330
2C9
100
AcDbEntity
  8
O
100
AcDbBlockBegin
  2
Group7
 70
     0
 10
0.0
 20
0.0
 30
0.0
  3
Group7
  1

  0
LWPOLYLINE
  5
2CA
330
2C9
100
AcDbEntity
  8
O
  6
Continuous
 62
     7
100
AcDbPolyline
 90
       12
 70
     0
 43
0.0139
 10
133.4441
 20
-10.8311
 10
133.0912
 20
-10.684
 10
132.9441
 20
-10.3311
 10
132.9441
 20
-10.3311
 10
133.0912
 20
-9.9782
 10
133.4441
 20
-9.8311
 10
133.4441
 20
-9.8311
 10
133.797
 20
-9.9782
 10
133.9441
 20
-10.3311
 10
133.9441
 20
-10.3311
 10
133.797
 20
-10.684
 10
133.4441
 20
-10.8311
  0
LWPOLYLINE
  5
2D8
330
2C9
100
AcDbEntity
  8
O
  6
Continuous
 62
     7
100
AcDbPolyline
 90
       12
 70
     0
 43
0.0139
 10
131.4441
 20
-10.8311
 10
131.0912
 20
-10.684
 10
130.9441
 20
-10.3311
 10
130.9441
 20
-10.3311
 10
131.0912
 20
-9.9782
 10
131.4441
 20
-9.8311
 10
131.4441
 20
-9.8311
 10
131.797
 20
-9.9782
 10
131.9441
 20
-10.3311
 10
131.9441
 20
-10.3311
 10
131.797
 20
-10.684
 10
131.4441
 20
-10.8311
  0
LWPOLYLINE
  5
2E6
330
2C9
100
AcDbEntity
  8
O
  6
Continuous
 62
     7
100
AcDbPolyline
 90
       12
 70
     0
 43
0.0139
 10
127.4441
 20
-10.8311
 10
127.0912
 20
-10.684
 10
126.9441
 20
-10.3311
 10
126.9441
 20
-10.3311
 10
127.0912
 20
-9.9782
 10
127.4441
 20
-9.8311
 10
127.4441
 20
-9.8311
 10
127.797
 20
-9.9782
 10
127.9441
 20
-10.3311
 10
127.9441
 20
-10.3311
 10
127.797
 20
-10.684
 10
127.4441
 20
-10.8311
  0
LWPOLYLINE
  5
2F4
330
2C9
100
AcDbEntity
  8
O
  6
Continuous
 62
     7
100
AcDbPolyline
 90
       12
 70
     0
 43
0.0139
 10
129.4441
 20
-10.8311
 10
129.0912
 20
-10.684
 10
128.9441
 20
-10.3311
 10
128.9441
 20
-10.3311
 10
129.0912
 20
-9.9782
 10
129.4441
 20
-9.8311
 10
129.4441
 20
-9.8311
 10
129.797
 20
-9.9782
 10
129.9441
 20
-10.3311
 10
129.9441
 20
-10.3311
 10
129.797
 20
-10.684
 10
129.4441
 20
-10.8311
  0
LWPOLYLINE
  5
302
330
2C9
100
AcDbEntity
  8
O
  6
Continuous
 62
     7
100
AcDbPolyline
 90
        2
 70
     0
 43
0.0139
 10
135.4441
 20
-7.3311
 10
135.4441
 20
-12.8311
  0
LWPOLYLINE
  5
306
330
2C9
100
AcDbEntity
  8
O
  6
Continuous
 62
     7
100
AcDbPolyline
 90
        2
 70
     0
 43
0.0139
 10
125.4441
 20
-7.3311
 10
125.4441
 20
-12.8311
  0
LWPOLYLINE
  5
30A
330
2C9
100
AcDbEntity
  8
O
  6
Continuous
 62
     7
100
AcDbPolyline
 90
        2
 70
     0
 43
0.0139
 10
125.4441
 20
-12.8311
 10
135.4441
 20
-12.8311
  0
LWPOLYLINE
  5
30E
330
2C9
100
AcDbEntity
  8
O
  6
Continuous
 62
     7
100
AcDbPolyline
 90
        2
 70
     0
 43
0.0139
 10
135.4441
 20
-7.3311
 10
133.4441
 20
-7.3311
  0
LWPOLYLINE
  5
312
330
2C9
100
AcDbEntity
  8
O
  6
Continuous
 62
     7
100
AcDbPolyline
 90
        2
 70
     0
 43
0.0139
 10
134.9441
 20
-7.8311
 10
134.9441
 20
-12.3311
  0
LWPOLYLINE
  5
316
330
2C9
100
AcDbEntity
  8
O
  6
Continuous
 62
     7
100
AcDbPolyline
 90
        2
 70
     0
 43
0.0139
 10
134.9441
 20
-12.3311
 10
125.9441
 20
-12.3311
  0
LWPOLYLINE
  5
31A
330
2C9
100
AcDbEntity
  8
O
  6
Continuous
 62
     7
100
AcDbPolyline
 90
        2
 70
     0
 43
0.0139
 10
125.9441
 20
-7.8311
 10
125.9441
 20
-12.3311
  0
LWPOLYLINE
  5
31E
330
2C9
100
AcDbEntity
  8
O
  6
Continuous
 62
     7
100
AcDbPolyline
 90
        2
 70
     0
 43
0.0139
 10
133.4441
 20
-7.3311
 10
133.4441
 20
-8.3311
  0
LWPOLYLINE
  5
322
330
2C9
100
AcDbEntity
  8
O
  6
Continuous
 62
     7
100
AcDbPolyline
 90
        2
 70
     0
 43
0.0139
 10
134.9441
 20
-7.8311
 10
133.9441
 20
-7.8311
  0
LWPOLYLINE
  5
326
330
2C9
100
AcDbEntity
  8
O
  6
Continuous
 62
     7
100
AcDbPolyline
 90
        2
 70
     0
 43
0.0139
 10
133.9441
 20
-7.8311
 10
133.9441
 20
-8.8311
  0
LWPOLYLINE
  5
32A
330
2C9
100
AcDbEntity
  8
O
  6
Continuous
 62
     7
100
AcDbPolyline
 90
        2
 70
     0
 43
0.0139
 10
133.9441
 20
-8.8311
 10
126.9441
 20
-8.8311
  0
LWPOLYLINE
  5
32E
330
2C9
100
AcDbEntity
  8
O
  6
Continuous
 62
     7
100
AcDbPolyline
 90
        2
 70
     0
 43
0.0139
 10
133.4441
 20
-8.3311
 10
127.4441
 20
-8.3311
  0
LWPOLYLINE
  5
332
330
2C9
100
AcDbEntity
  8
O
  6
Continuous
 62
     7
100
AcDbPolyline
 90
        2
 70
     0
 43
0.0139
 10
127.4441
 20
-7.3311
 10
125.4441
 20
-7.3311
  0
LWPOLYLINE
  5
336
330
2C9
100
AcDbEntity
  8
O
  6
Continuous
 62
     7
100
AcDbPolyline
 90
        2
 70
     0
 43
0.0139
 10
127.4441
 20
-7.3311
 10
127.4441
 20
-8.3311
  0
LWPOLYLINE
  5
33A
330
2C9
100
AcDbEntity
  8
O
  6
Continuous
 62
     7
100
AcDbPolyline
 90
        2
 70
     0
 43
0.0139
 10
126.9441
 20
-7.8311
 10
125.9441
 20
-7.8311
  0
LWPOLYLINE
  5
33E
330
2C9
100
AcDbEntity
  8
O
  6
Continuous
 62
     7
100
AcDbPolyline
 90
        2
 70
     0
 43
0.0139
 10
126.9441
 20
-7.8311
 10
126.9441
 20
-8.8311
  0
LWPOLYLINE
  5
342
330
2C9
100
AcDbEntity
  8
O
  6
Continuous
 62
     7
100
AcDbPolyline
 90
        5
 70
     0
 43
0.0139
 10
131.4441
 20
-7.3311
 10
131.4441
 20
-8.3311
 10
129.4441
 20
-8.3311
 10
129.4441
 20
-7.3311
 10
131.4441
 20
-7.3311
  0
ENDBLK
  5
349
330
2C9
100
AcDbEntity
  8
O
100
AcDbBlockEnd
  0
BLOCK
  5
34A
330
34B
100
AcDbEntity
  8
O
100
AcDbBlockBegin
  2
Group8
 70
     0
 10
0.0
 20
0.0
 30
0.0
  3
Group8
  1

  0
LWPOLYLINE
  5
34C
330
34B
100
AcDbEntity
  8
O
  6
Continuous
 62
     7
100
AcDbPolyline
 90
       12
 70
     0
 43
0.0139
 10
41.2677
 20
-10.8311
 10
40.9149
 20
-10.684
 10
40.7677
 20
-10.3311
 10
40.7677
 20
-10.3311
 10
40.9149
 20
-9.9782
 10
41.2677
 20
-9.8311
 10
41.2677
 20
-9.8311
 10
41.6206
 20
-9.9782
 10
41.7677
 20
-10.3311
 10
41.7677
 20
-10.3311
 10
41.6206
 20
-10.684
 10
41.2677
 20
-10.8311
  0
LWPOLYLINE
  5
35A
330
34B
100
AcDbEntity
  8
O
  6
Continuous
 62
     7
100
AcDbPolyline
 90
       12
 70
     0
 43
0.0139
 10
49.2677
 20
-10.8311
 10
48.9149
 20
-10.684
 10
48.7677
 20
-10.3311
 10
48.7677
 20
-10.3311
 10
48.9149
 20
-9.9782
 10
49.2677
 20
-9.8311
 10
49.2677
 20
-9.8311
 10
49.6206
 20
-9.9782
 10
49.7677
 20
-10.3311
 10
49.7677
 20
-10.3311
 10
49.6206
 20
-10.684
 10
49.2677
 20
-10.8311
  0
LWPOLYLINE
  5
368
330
34B
100
AcDbEntity
  8
O
  6
Continuous
 62
     7
100
AcDbPolyline
 90
       12
 70
     0
 43
0.0139
 10
43.2677
 20
-10.8311
 10
42.9149
 20
-10.684
 10
42.7677
 20
-10.3311
 10
42.7677
 20
-10.3311
 10
42.9149
 20
-9.9782
 10
43.2677
 20
-9.8311
 10
43.2677
 20
-9.8311
 10
43.6206
 20
-9.9782
 10
43.7677
 20
-10.3311
 10
43.7677
 20
-10.3311
 10
43.6206
 20
-10.684
 10
43.2677
 20
-10.8311
  0
LWPOLYLINE
  5
376
330
34B
100
AcDbEntity
  8
O
  6
Continuous
 62
     7
100
AcDbPolyline
 90
       12
 70
     0
 43
0.0139
 10
45.2677
 20
-10.8311
 10
44.9149
 20
-10.684
 10
44.7677
 20
-10.3311
 10
44.7677
 20
-10.3311
 10
44.9149
 20
-9.9782
 10
45.2677
 20
-9.8311
 10
45.2677
 20
-9.8311
 10
45.6206
 20
-9.9782
 10
45.7677
 20
-10.3311
 10
45.7677
 20
-10.3311
 10
45.6206
 20
-10.684
 10
45.2677
 20
-10.8311
  0
LWPOLYLINE
  5
384
330
34B
100
AcDbEntity
  8
O
  6
Continuous
 62
     7
100
AcDbPolyline
 90
       12
 70
     0
 43
0.0139
 10
47.2677
 20
-10.8311
 10
46.9149
 20
-10.684
 10
46.7677
 20
-10.3311
 10
46.7677
 20
-10.3311
 10
46.9149
 20
-9.9782
 10
47.2677
 20
-9.8311
 10
47.2677
 20
-9.8311
 10
47.6206
 20
-9.9782
 10
47.7677
 20
-10.3311
 10
47.7677
 20
-10.3311
 10
47.6206
 20
-10.684
 10
47.2677
 20
-10.8311
  0
LWPOLYLINE
  5
392
330
34B
100
AcDbEntity
  8
O
  6
Continuous
 62
     7
100
AcDbPolyline
 90
        2
 70
     0
 43
0.0139
 10
51.2677
 20
-7.3311
 10
51.2677
 20
-12.8311
  0
LWPOLYLINE
  5
396
330
34B
100
AcDbEntity
  8
O
  6
Continuous
 62
     7
100
AcDbPolyline
 90
        2
 70
     0
 43
0.0139
 10
39.2677
 20
-7.3311
 10
39.2677
 20
-12.8311
  0
LWPOLYLINE
  5
39A
330
34B
100
AcDbEntity
  8
O
  6
Continuous
 62
     7
100
AcDbPolyline
 90
        2
 70
     0
 43
0.0139
 10
39.2677
 20
-12.8311
 10
51.2677
 20
-12.8311
  0
LWPOLYLINE
  5
39E
330
34B
100
AcDbEntity
  8
O
  6
Continuous
 62
     7
100
AcDbPolyline
 90
        2
 70
     0
 43
0.0139
 10
51.2677
 20
-7.3311
 10
49.2677
 20
-7.3311
  0
LWPOLYLINE
  5
3A2
330
34B
100
AcDbEntity
  8
O
  6
Continuous
 62
     7
100
AcDbPolyline
 90
        2
 70
     0
 43
0.0139
 10
50.7677
 20
-7.8311
 10
50.7677
 20
-12.3311
  0
LWPOLYLINE
  5
3A6
330
34B
100
AcDbEntity
  8
O
  6
Continuous
 62
     7
100
AcDbPolyline
 90
        2
 70
     0
 43
0.0139
 10
50.7677
 20
-12.3311
 10
39.7677
 20
-12.3311
  0
LWPOLYLINE
  5
3AA
330
34B
100
AcDbEntity
  8
O
  6
Continuous
 62
     7
100
AcDbPolyline
 90
        2
 70
     0
 43
0.0139
 10
39.7677
 20
-7.8311
 10
39.7677
 20
-12.3311
  0
LWPOLYLINE
  5
3AE
330
34B
100
AcDbEntity
  8
O
  6
Continuous
 62
     7
100
AcDbPolyline
 90
        2
 70
     0
 43
0.0139
 10
49.2677
 20
-7.3311
 10
49.2677
 20
-8.3311
  0
LWPOLYLINE
  5
3B2
330
34B
100
AcDbEntity
  8
O
  6
Continuous
 62
     7
100
AcDbPolyline
 90
        2
 70
     0
 43
0.0139
 10
50.7677
 20
-7.8311
 10
49.7677
 20
-7.8311
  0
LWPOLYLINE
  5
3B6
330
34B
100
AcDbEntity
  8
O
  6
Continuous
 62
     7
100
AcDbPolyline
 90
        2
 70
     0
 43
0.0139
 10
49.7677
 20
-7.8311
 10
49.7677
 20
-8.8311
  0
LWPOLYLINE
  5
3BA
330
34B
100
AcDbEntity
  8
O
  6
Continuous
 62
     7
100
AcDbPolyline
 90
        2
 70
     0
 43
0.0139
 10
49.7677
 20
-8.8311
 10
40.7677
 20
-8.8311
  0
LWPOLYLINE
  5
3BE
330
34B
100
AcDbEntity
  8
O
  6
Continuous
 62
     7
100
AcDbPolyline
 90
        2
 70
     0
 43
0.0139
 10
49.2677
 20
-8.3311
 10
41.2677
 20
-8.3311
  0
LWPOLYLINE
  5
3C2
330
34B
100
AcDbEntity
  8
O
  6
Continuous
 62
     7
100
AcDbPolyline
 90
        2
 70
     0
 43
0.0139
 10
41.2677
 20
-7.3311
 10
39.2677
 20
-7.3311
  0
LWPOLYLINE
  5
3C6
330
34B
100
AcDbEntity
  8
O
  6
Continuous
 62
     7
100
AcDbPolyline
 90
        2
 70
     0
 43
0.0139
 10
41.2677
 20
-7.3311
 10
41.2677
 20
-8.3311
  0
LWPOLYLINE
  5
3CA
330
34B
100
AcDbEntity
  8
O
  6
Continuous
 62
     7
100
AcDbPolyline
 90
        2
 70
     0
 43
0.0139
 10
40.7677
 20
-7.8311
 10
39.7677
 20
-7.8311
  0
LWPOLYLINE
  5
3CE
330
34B
100
AcDbEntity
  8
O
  6
Continuous
 62
     7
100
AcDbPolyline
 90
        2
 70
     0
 43
0.0139
 10
40.7677
 20
-7.8311
 10
40.7677
 20
-8.8311
  0
LWPOLYLINE
  5
3D2
330
34B
100
AcDbEntity
  8
O
  6
Continuous
 62
     7
100
AcDbPolyline
 90
        5
 70
     0
 43
0.0139
 10
46.2677
 20
-7.3311
 10
46.2677
 20
-8.3311
 10
44.2677
 20
-8.3311
 10
44.2677
 20
-7.3311
 10
46.2677
 20
-7.3311
  0
ENDBLK
  5
3D9
330
34B
100
AcDbEntity
  8
O
100
AcDbBlockEnd
  0
BLOCK
  5
3DA
330
3DB
100
AcDbEntity
  8
O
100
AcDbBlockBegin
  2
Group9
 70
     0
 10
0.0
 20
0.0
 30
0.0
  3
Group9
  1

  0
LWPOLYLINE
  5
3DC
330
3DB
100
AcDbEntity
  8
O
  6
Continuous
 62
     7
100
AcDbPolyline
 90
       12
 70
     0
 43
0.0139
 10
54.2677
 20
-10.8311
 10
53.9149
 20
-10.684
 10
53.7677
 20
-10.3311
 10
53.7677
 20
-10.3311
 10
53.9149
 20
-9.9782
 10
54.2677
 20
-9.8311
 10
54.2677
 20
-9.8311
 10
54.6206
 20
-9.9782
 10
54.7677
 20
-10.3311
 10
54.7677
 20
-10.3311
 10
54.6206
 20
-10.684
 10
54.2677
 20
-10.8311
  0
LWPOLYLINE
  5
3EA
330
3DB
100
AcDbEntity
  8
O
  6
Continuous
 62
     7
100
AcDbPolyline
 90
       12
 70
     0
 43
0.0139
 10
62.2677
 20
-10.8311
 10
61.9149
 20
-10.684
 10
61.7677
 20
-10.3311
 10
61.7677
 20
-10.3311
 10
61.9149
 20
-9.9782
 10
62.2677
 20
-9.8311
 10
62.2677
 20
-9.8311
 10
62.6206
 20
-9.9782
 10
62.7677
 20
-10.3311
 10
62.7677
 20
-10.3311
 10
62.6206
 20
-10.684
 10
62.2677
 20
-10.8311
  0
LWPOLYLINE
  5
3F8
330
3DB
100
AcDbEntity
  8
O
  6
Continuous
 62
     7
100
AcDbPolyline
 90
       12
 70
     0
 43
0.0139
 10
56.2677
 20
-10.8311
 10
55.9149
 20
-10.684
 10
55.7677
 20
-10.3311
 10
55.7677
 20
-10.3311
 10
55.9149
 20
-9.9782
 10
56.2677
 20
-9.8311
 10
56.2677
 20
-9.8311
 10
56.6206
 20
-9.9782
 10
56.7677
 20
-10.3311
 10
56.7677
 20
-10.3311
 10
56.6206
 20
-10.684
 10
56.2677
 20
-10.8311
  0
LWPOLYLINE
  5
406
330
3DB
100
AcDbEntity
  8
O
  6
Continuous
 62
     7
100
AcDbPolyline
 90
       12
 70
     0
 43
0.0139
 10
58.2677
 20
-10.8311
 10
57.9149
 20
-10.684
 10
57.7677
 20
-10.3311
 10
57.7677
 20
-10.3311
 10
57.9149
 20
-9.9782
 10
58.2677
 20
-9.8311
 10
58.2677
 20
-9.8311
 10
58.6206
 20
-9.9782
 10
58.7677
 20
-10.3311
 10
58.7677
 20
-10.3311
 10
58.6206
 20
-10.684
 10
58.2677
 20
-10.8311
  0
LWPOLYLINE
  5
414
330
3DB
100
AcDbEntity
  8
O
  6
Continuous
 62
     7
100
AcDbPolyline
 90
       12
 70
     0
 43
0.0139
 10
60.2677
 20
-10.8311
 10
59.9149
 20
-10.684
 10
59.7677
 20
-10.3311
 10
59.7677
 20
-10.3311
 10
59.9149
 20
-9.9782
 10
60.2677
 20
-9.8311
 10
60.2677
 20
-9.8311
 10
60.6206
 20
-9.9782
 10
60.7677
 20
-10.3311
 10
60.7677
 20
-10.3311
 10
60.6206
 20
-10.684
 10
60.2677
 20
-10.8311
  0
LWPOLYLINE
  5
422
330
3DB
100
AcDbEntity
  8
O
  6
Continuous
 62
     7
100
AcDbPolyline
 90
        2
 70
     0
 43
0.0139
 10
64.2677
 20
-7.3311
 10
64.2677
 20
-12.8311
  0
LWPOLYLINE
  5
426
330
3DB
100
AcDbEntity
  8
O
  6
Continuous
 62
     7
100
AcDbPolyline
 90
        2
 70
     0
 43
0.0139
 10
52.2677
 20
-7.3311
 10
52.2677
 20
-12.8311
  0
LWPOLYLINE
  5
42A
330
3DB
100
AcDbEntity
  8
O
  6
Continuous
 62
     7
100
AcDbPolyline
 90
        2
 70
     0
 43
0.0139
 10
52.2677
 20
-12.8311
 10
64.2677
 20
-12.8311
  0
LWPOLYLINE
  5
42E
330
3DB
100
AcDbEntity
  8
O
  6
Continuous
 62
     7
100
AcDbPolyline
 90
        2
 70
     0
 43
0.0139
 10
64.2677
 20
-7.3311
 10
62.2677
 20
-7.3311
  0
LWPOLYLINE
  5
432
330
3DB
100
AcDbEntity
  8
O
  6
Continuous
 62
     7
100
AcDbPolyline
 90
        2
 70
     0
 43
0.0139
 10
63.7677
 20
-7.8311
 10
63.7677
 20
-12.3311
  0
LWPOLYLINE
  5
436
330
3DB
100
AcDbEntity
  8
O
  6
Continuous
 62
     7
100
AcDbPolyline
 90
        2
 70
     0
 43
0.0139
 10
63.7677
 20
-12.3311
 10
52.7677
 20
-12.3311
  0
LWPOLYLINE
  5
43A
330
3DB
100
AcDbEntity
  8
O
  6
Continuous
 62
     7
100
AcDbPolyline
 90
        2
 70
     0
 43
0.0139
 10
52.7677
 20
-7.8311
 10
52.7677
 20
-12.3311
  0
LWPOLYLINE
  5
43E
330
3DB
100
AcDbEntity
  8
O
  6
Continuous
 62
     7
100
AcDbPolyline
 90
        2
 70
     0
 43
0.0139
 10
62.2677
 20
-7.3311
 10
62.2677
 20
-8.3311
  0
LWPOLYLINE
  5
442
330
3DB
100
AcDbEntity
  8
O
  6
Continuous
 62
     7
100
AcDbPolyline
 90
        2
 70
     0
 43
0.0139
 10
63.7677
 20
-7.8311
 10
62.7677
 20
-7.8311
  0
LWPOLYLINE
  5
446
330
3DB
100
AcDbEntity
  8
O
  6
Continuous
 62
     7
100
AcDbPolyline
 90
        2
 70
     0
 43
0.0139
 10
62.7677
 20
-7.8311
 10
62.7677
 20
-8.8311
  0
LWPOLYLINE
  5
44A
330
3DB
100
AcDbEntity
  8
O
  6
Continuous
 62
     7
100
AcDbPolyline
 90
        2
 70
     0
 43
0.0139
 10
62.7677
 20
-8.8311
 10
53.7677
 20
-8.8311
  0
LWPOLYLINE
  5
44E
330
3DB
100
AcDbEntity
  8
O
  6
Continuous
 62
     7
100
AcDbPolyline
 90
        2
 70
     0
 43
0.0139
 10
62.2677
 20
-8.3311
 10
54.2677
 20
-8.3311
  0
LWPOLYLINE
  5
452
330
3DB
100
AcDbEntity
  8
O
  6
Continuous
 62
     7
100
AcDbPolyline
 90
        2
 70
     0
 43
0.0139
 10
54.2677
 20
-7.3311
 10
52.2677
 20
-7.3311
  0
LWPOLYLINE
  5
456
330
3DB
100
AcDbEntity
  8
O
  6
Continuous
 62
     7
100
AcDbPolyline
 90
        2
 70
     0
 43
0.0139
 10
54.2677
 20
-7.3311
 10
54.2677
 20
-8.3311
  0
LWPOLYLINE
  5
45A
330
3DB
100
AcDbEntity
  8
O
  6
Continuous
 62
     7
100
AcDbPolyline
 90
        2
 70
     0
 43
0.0139
 10
53.7677
 20
-7.8311
 10
52.7677
 20
-7.8311
  0
LWPOLYLINE
  5
45E
330
3DB
100
AcDbEntity
  8
O
  6
Continuous
 62
     7
100
AcDbPolyline
 90
        2
 70
     0
 43
0.0139
 10
53.7677
 20
-7.8311
 10
53.7677
 20
-8.8311
  0
LWPOLYLINE
  5
462
330
3DB
100
AcDbEntity
  8
O
  6
Continuous
 62
     7
100
AcDbPolyline
 90
        5
 70
     0
 43
0.0139
 10
59.2677
 20
-7.3311
 10
59.2677
 20
-8.3311
 10
57.2677
 20
-8.3311
 10
57.2677
 20
-7.3311
 10
59.2677
 20
-7.3311
  0
ENDBLK
  5
469
330
3DB
100
AcDbEntity
  8
O
100
AcDbBlockEnd
  0
BLOCK
  5
46A
330
46B
100
AcDbEntity
  8
O
100
AcDbBlockBegin
  2
Group10
 70
     0
 10
0.0
 20
0.0
 30
0.0
  3
Group10
  1

  0
LWPOLYLINE
  5
46C
330
46B
100
AcDbEntity
  8
O
  6
Continuous
 62
     7
100
AcDbPolyline
 90
       12
 70
     0
 43
0.0139
 10
122.4441
 20
-10.8311
 10
122.0912
 20
-10.684
 10
121.9441
 20
-10.3311
 10
121.9441
 20
-10.3311
 10
122.0912
 20
-9.9782
 10
122.4441
 20
-9.8311
 10
122.4441
 20
-9.8311
 10
122.797
 20
-9.9782
 10
122.9441
 20
-10.3311
 10
122.9441
 20
-10.3311
 10
122.797
 20
-10.684
 10
122.4441
 20
-10.8311
  0
LWPOLYLINE
  5
47A
330
46B
100
AcDbEntity
  8
O
  6
Continuous
 62
     7
100
AcDbPolyline
 90
       12
 70
     0
 43
0.0139
 10
112.4441
 20
-10.8311
 10
112.0912
 20
-10.684
 10
111.9441
 20
-10.3311
 10
111.9441
 20
-10.3311
 10
112.0912
 20
-9.9782
 10
112.4441
 20
-9.8311
 10
112.4441
 20
-9.8311
 10
112.797
 20
-9.9782
 10
112.9441
 20
-10.3311
 10
112.9441
 20
-10.3311
 10
112.797
 20
-10.684
 10
112.4441
 20
-10.8311
  0
LWPOLYLINE
  5
488
330
46B
100
AcDbEntity
  8
O
  6
Continuous
 62
     7
100
AcDbPolyline
 90
       12
 70
     0
 43
0.0139
 10
120.4441
 20
-10.8311
 10
120.0912
 20
-10.684
 10
119.9441
 20
-10.3311
 10
119.9441
 20
-10.3311
 10
120.0912
 20
-9.9782
 10
120.4441
 20
-9.8311
 10
120.4441
 20
-9.8311
 10
120.797
 20
-9.9782
 10
120.9441
 20
-10.3311
 10
120.9441
 20
-10.3311
 10
120.797
 20
-10.684
 10
120.4441
 20
-10.8311
  0
LWPOLYLINE
  5
496
330
46B
100
AcDbEntity
  8
O
  6
Continuous
 62
     7
100
AcDbPolyline
 90
       12
 70
     0
 43
0.0139
 10
114.4441
 20
-10.8311
 10
114.0912
 20
-10.684
 10
113.9441
 20
-10.3311
 10
113.9441
 20
-10.3311
 10
114.0912
 20
-9.9782
 10
114.4441
 20
-9.8311
 10
114.4441
 20
-9.8311
 10
114.797
 20
-9.9782
 10
114.9441
 20
-10.3311
 10
114.9441
 20
-10.3311
 10
114.797
 20
-10.684
 10
114.4441
 20
-10.8311
  0
LWPOLYLINE
  5
4A4
330
46B
100
AcDbEntity
  8
O
  6
Continuous
 62
     7
100
AcDbPolyline
 90
       12
 70
     0
 43
0.0139
 10
116.4441
 20
-10.8311
 10
116.0912
 20
-10.684
 10
115.9441
 20
-10.3311
 10
115.9441
 20
-10.3311
 10
116.0912
 20
-9.9782
 10
116.4441
 20
-9.8311
 10
116.4441
 20
-9.8311
 10
116.797
 20
-9.9782
 10
116.9441
 20
-10.3311
 10
116.9441
 20
-10.3311
 10
116.797
 20
-10.684
 10
116.4441
 20
-10.8311
  0
LWPOLYLINE
  5
4B2
330
46B
100
AcDbEntity
  8
O
  6
Continuous
 62
     7
100
AcDbPolyline
 90
       12
 70
     0
 43
0.0139
 10
118.4441
 20
-10.8311
 10
118.0912
 20
-10.684
 10
117.9441
 20
-10.3311
 10
117.9441
 20
-10.3311
 10
118.0912
 20
-9.9782
 10
118.4441
 20
-9.8311
 10
118.4441
 20
-9.8311
 10
118.797
 20
-9.9782
 10
118.9441
 20
-10.3311
 10
118.9441
 20
-10.3311
 10
118.797
 20
-10.684
 10
118.4441
 20
-10.8311
  0
LWPOLYLINE
  5
4C0
330
46B
100
AcDbEntity
  8
O
  6
Continuous
 62
     7
100
AcDbPolyline
 90
        2
 70
     0
 43
0.0139
 10
124.4441
 20
-7.3311
 10
124.4441
 20
-12.8311
  0
LWPOLYLINE
  5
4C4
330
46B
100
AcDbEntity
  8
O
  6
Continuous
 62
     7
100
AcDbPolyline
 90
        2
 70
     0
 43
0.0139
 10
110.4441
 20
-7.3311
 10
110.4441
 20
-12.8311
  0
LWPOLYLINE
  5
4C8
330
46B
100
AcDbEntity
  8
O
  6
Continuous
 62
     7
100
AcDbPolyline
 90
        2
 70
     0
 43
0.0139
 10
110.4441
 20
-12.8311
 10
124.4441
 20
-12.8311
  0
LWPOLYLINE
  5
4CC
330
46B
100
AcDbEntity
  8
O
  6
Continuous
 62
     7
100
AcDbPolyline
 90
        2
 70
     0
 43
0.0139
 10
124.4441
 20
-7.3311
 10
122.4441
 20
-7.3311
  0
LWPOLYLINE
  5
4D0
330
46B
100
AcDbEntity
  8
O
  6
Continuous
 62
     7
100
AcDbPolyline
 90
        2
 70
     0
 43
0.0139
 10
123.9441
 20
-7.8311
 10
123.9441
 20
-12.3311
  0
LWPOLYLINE
  5
4D4
330
46B
100
AcDbEntity
  8
O
  6
Continuous
 62
     7
100
AcDbPolyline
 90
        2
 70
     0
 43
0.0139
 10
123.9441
 20
-12.3311
 10
110.9441
 20
-12.3311
  0
LWPOLYLINE
  5
4D8
330
46B
100
AcDbEntity
  8
O
  6
Continuous
 62
     7
100
AcDbPolyline
 90
        2
 70
     0
 43
0.0139
 10
110.9441
 20
-7.8311
 10
110.9441
 20
-12.3311
  0
LWPOLYLINE
  5
4DC
330
46B
100
AcDbEntity
  8
O
  6
Continuous
 62
     7
100
AcDbPolyline
 90
        2
 70
     0
 43
0.0139
 10
122.4441
 20
-7.3311
 10
122.4441
 20
-8.3311
  0
LWPOLYLINE
  5
4E0
330
46B
100
AcDbEntity
  8
O
  6
Continuous
 62
     7
100
AcDbPolyline
 90
        2
 70
     0
 43
0.0139
 10
123.9441
 20
-7.8311
 10
122.9441
 20
-7.8311
  0
LWPOLYLINE
  5
4E4
330
46B
100
AcDbEntity
  8
O
  6
Continuous
 62
     7
100
AcDbPolyline
 90
        2
 70
     0
 43
0.0139
 10
122.9441
 20
-7.8311
 10
122.9441
 20
-8.8311
  0
LWPOLYLINE
  5
4E8
330
46B
100
AcDbEntity
  8
O
  6
Continuous
 62
     7
100
AcDbPolyline
 90
        2
 70
     0
 43
0.0139
 10
122.9441
 20
-8.8311
 10
111.9441
 20
-8.8311
  0
LWPOLYLINE
  5
4EC
330
46B
100
AcDbEntity
  8
O
  6
Continuous
 62
     7
100
AcDbPolyline
 90
        2
 70
     0
 43
0.0139
 10
122.4441
 20
-8.3311
 10
112.4441
 20
-8.3311
  0
LWPOLYLINE
  5
4F0
330
46B
100
AcDbEntity
  8
O
  6
Continuous
 62
     7
100
AcDbPolyline
 90
        2
 70
     0
 43
0.0139
 10
112.4441
 20
-7.3311
 10
110.4441
 20
-7.3311
  0
LWPOLYLINE
  5
4F4
330
46B
100
AcDbEntity
  8
O
  6
Continuous
 62
     7
100
AcDbPolyline
 90
        2
 70
     0
 43
0.0139
 10
112.4441
 20
-7.3311
 10
112.4441
 20
-8.3311
  0
LWPOLYLINE
  5
4F8
330
46B
100
AcDbEntity
  8
O
  6
Continuous
 62
     7
100
AcDbPolyline
 90
        2
 70
     0
 43
0.0139
 10
111.9441
 20
-7.8311
 10
110.9441
 20
-7.8311
  0
LWPOLYLINE
  5
4FC
330
46B
100
AcDbEntity
  8
O
  6
Continuous
 62
     7
100
AcDbPolyline
 90
        2
 70
     0
 43
0.0139
 10
111.9441
 20
-7.8311
 10
111.9441
 20
-8.8311
  0
LWPOLYLINE
  5
500
330
46B
100
AcDbEntity
  8
O
  6
Continuous
 62
     7
100
AcDbPolyline
 90
        5
 70
     0
 43
0.0139
 10
118.4441
 20
-7.3311
 10
118.4441
 20
-8.3311
 10
116.4441
 20
-8.3311
 10
116.4441
 20
-7.3311
 10
118.4441
 20
-7.3311
  0
ENDBLK
  5
507
330
46B
100
AcDbEntity
  8
O
100
AcDbBlockEnd
  0
BLOCK
  5
508
330
509
100
AcDbEntity
  8
O
100
AcDbBlockBegin
  2
Group11
 70
     0
 10
0.0
 20
0.0
 30
0.0
  3
Group11
  1

  0
LWPOLYLINE
  5
50A
330
509
100
AcDbEntity
  8
O
  6
Continuous
 62
     7
100
AcDbPolyline
 90
        5
 70
     0
 43
0.0139
 10
227.7724
 20
-97.0295
 10
227.7724
 20
-84.7795
 10
223.0224
 20
-84.7795
 10
223.0224
 20
-97.0295
 10
227.7724
 20
-97.0295
  0
LWPOLYLINE
  5
511
330
509
100
AcDbEntity
  8
O
  6
Continuous
 62
     7
100
AcDbPolyline
 90
        5
 70
     0
 43
0.0069
 10
225.5224
 20
-95.7795
 10
225.5224
 20
-94.7795
 10
223.0224
 20
-94.7795
 10
223.0224
 20
-95.7795
 10
225.5224
 20
-95.7795
  0
LWPOLYLINE
  5
518
330
509
100
AcDbEntity
  8
O
  6
Continuous
 62
     7
100
AcDbPolyline
 90
        2
 70
     0
 43
0.0069
 10
223.7724
 20
-95.7795
 10
223.7724
 20
-94.7795
  0
LWPOLYLINE
  5
51C
330
509
100
AcDbEntity
  8
O
  6
Continuous
 62
     7
100
AcDbPolyline
 90
        5
 70
     0
 43
0.0069
 10
225.5224
 20
-94.5295
 10
225.5224
 20
-93.5295
 10
223.0224
 20
-93.5295
 10
223.0224
 20
-94.5295
 10
225.5224
 20
-94.5295
  0
LWPOLYLINE
  5
523
330
509
100
AcDbEntity
  8
O
  6
Continuous
 62
     7
100
AcDbPolyline
 90
        2
 70
     0
 43
0.0069
 10
223.7724
 20
-94.5295
 10
223.7724
 20
-93.5295
  0
LWPOLYLINE
  5
527
330
509
100
AcDbEntity
  8
O
  6
Continuous
 62
     7
100
AcDbPolyline
 90
        5
 70
     0
 43
0.0069
 10
225.5224
 20
-93.2795
 10
225.5224
 20
-92.2795
 10
223.0224
 20
-92.2795
 10
223.0224
 20
-93.2795
 10
225.5224
 20
-93.2795
  0
LWPOLYLINE
  5
52E
330
509
100
AcDbEntity
  8
O
  6
Continuous
 62
     7
100
AcDbPolyline
 90
        2
 70
     0
 43
0.0069
 10
223.7724
 20
-93.2795
 10
223.7724
 20
-92.2795
  0
LWPOLYLINE
  5
532
330
509
100
AcDbEntity
  8
O
  6
Continuous
 62
     7
100
AcDbPolyline
 90
        5
 70
     0
 43
0.0069
 10
225.5224
 20
-92.0295
 10
225.5224
 20
-91.0295
 10
223.0224
 20
-91.0295
 10
223.0224
 20
-92.0295
 10
225.5224
 20
-92.0295
  0
LWPOLYLINE
  5
539
330
509
100
AcDbEntity
  8
O
  6
Continuous
 62
     7
100
AcDbPolyline
 90
        2
 70
     0
 43
0.0069
 10
223.7724
 20
-92.0295
 10
223.7724
 20
-91.0295
  0
LWPOLYLINE
  5
53D
330
509
100
AcDbEntity
  8
O
  6
Continuous
 62
     7
100
AcDbPolyline
 90
        5
 70
     0
 43
0.0069
 10
225.5224
 20
-90.7795
 10
225.5224
 20
-89.7795
 10
223.0224
 20
-89.7795
 10
223.0224
 20
-90.7795
 10
225.5224
 20
-90.7795
  0
LWPOLYLINE
  5
544
330
509
100
AcDbEntity
  8
O
  6
Continuous
 62
     7
100
AcDbPolyline
 90
        2
 70
     0
 43
0.0069
 10
223.7724
 20
-90.7795
 10
223.7724
 20
-89.7795
  0
LWPOLYLINE
  5
548
330
509
100
AcDbEntity
  8
O
  6
Continuous
 62
     7
100
AcDbPolyline
 90
        5
 70
     0
 43
0.0069
 10
225.5224
 20
-89.5295
 10
225.5224
 20
-88.5295
 10
223.0224
 20
-88.5295
 10
223.0224
 20
-89.5295
 10
225.5224
 20
-89.5295
  0
LWPOLYLINE
  5
54F
330
509
100
AcDbEntity
  8
O
  6
Continuous
 62
     7
100
AcDbPolyline
 90
        2
 70
     0
 43
0.0069
 10
223.7724
 20
-89.5295
 10
223.7724
 20
-88.5295
  0
LWPOLYLINE
  5
553
330
509
100
AcDbEntity
  8
O
  6
Continuous
 62
     7
100
AcDbPolyline
 90
        5
 70
     0
 43
0.0069
 10
225.5224
 20
-88.2795
 10
225.5224
 20
-87.2795
 10
223.0224
 20
-87.2795
 10
223.0224
 20
-88.2795
 10
225.5224
 20
-88.2795
  0
LWPOLYLINE
  5
55A
330
509
100
AcDbEntity
  8
O
  6
Continuous
 62
     7
100
AcDbPolyline
 90
        2
 70
     0
 43
0.0069
 10
223.7724
 20
-88.2795
 10
223.7724
 20
-87.2795
  0
LWPOLYLINE
  5
55E
330
509
100
AcDbEntity
  8
O
  6
Continuous
 62
     7
100
AcDbPolyline
 90
        5
 70
     0
 43
0.0069
 10
225.5224
 20
-87.0295
 10
225.5224
 20
-86.0295
 10
223.0224
 20
-86.0295
 10
223.0224
 20
-87.0295
 10
225.5224
 20
-87.0295
  0
LWPOLYLINE
  5
565
330
509
100
AcDbEntity
  8
O
  6
Continuous
 62
     7
100
AcDbPolyline
 90
        2
 70
     0
 43
0.0069
 10
223.7724
 20
-87.0295
 10
223.7724
 20
-86.0295
  0
ENDBLK
  5
569
330
509
100
AcDbEntity
  8
O
100
AcDbBlockEnd
  0
BLOCK
  5
56A
330
56B
100
AcDbEntity
  8
O
100
AcDbBlockBegin
  2
Group12
 70
     0
 10
0.0
 20
0.0
 30
0.0
  3
Group12
  1

  0
INSERT
  5
56C
330
56B
100
AcDbEntity
  8
O
100
AcDbBlockReference
  2
Group11
 10
0.0
 20
0.0
 30
0.0
  0
TEXT
  5
56D
330
56B
100
AcDbEntity
  8
O
 62
     7
100
AcDbText
 10
226.9859
 20
-95.5295
 30
0.0
 40
0.0417
  1
1
  7
ＭＳ_ゴシック
100
AcDbText
  0
TEXT
  5
56E
330
56B
100
AcDbEntity
  8
O
 62
     7
100
AcDbText
 10
226.9859
 20
-94.2795
 30
0.0
 40
0.0417
  1
2
  7
ＭＳ_ゴシック
100
AcDbText
  0
TEXT
  5
56F
330
56B
100
AcDbEntity
  8
O
 62
     7
100
AcDbText
 10
226.9859
 20
-93.0295
 30
0.0
 40
0.0417
  1
3
  7
ＭＳ_ゴシック
100
AcDbText
  0
TEXT
  5
570
330
56B
100
AcDbEntity
  8
O
 62
     7
100
AcDbText
 10
226.9859
 20
-91.7795
 30
0.0
 40
0.0417
  1
4
  7
ＭＳ_ゴシック
100
AcDbText
  0
TEXT
  5
571
330
56B
100
AcDbEntity
  8
O
 62
     7
100
AcDbText
 10
226.9859
 20
-90.5295
 30
0.0
 40
0.0417
  1
5
  7
ＭＳ_ゴシック
100
AcDbText
  0
TEXT
  5
572
330
56B
100
AcDbEntity
  8
O
 62
     7
100
AcDbText
 10
226.9859
 20
-89.2795
 30
0.0
 40
0.0417
  1
6
  7
ＭＳ_ゴシック
100
AcDbText
  0
TEXT
  5
573
330
56B
100
AcDbEntity
  8
O
 62
     7
100
AcDbText
 10
226.9859
 20
-88.0295
 30
0.0
 40
0.0417
  1
7
  7
ＭＳ_ゴシック
100
AcDbText
  0
TEXT
  5
574
330
56B
100
AcDbEntity
  8
O
 62
     7
100
AcDbText
 10
226.9859
 20
-86.7795
 30
0.0
 40
0.0417
  1
8
  7
ＭＳ_ゴシック
100
AcDbText
  0
TEXT
  5
575
330
56B
100
AcDbEntity
  8
O
 62
     7
100
AcDbText
 10
227.1937
 20
-95.7234
 30
0.0
 40
0.0417
  1
ON
  7
ＭＳ_ゴシック
100
AcDbText
  0
LWPOLYLINE
  5
576
330
56B
100
AcDbEntity
  8
O
  6
Continuous
 62
     7
100
AcDbPolyline
 90
        2
 70
     0
 43
0.0069
 10
225.2724
 20
-96.2795
 10
223.5224
 20
-96.2795
  0
SOLID
  5
57A
330
56B
100
AcDbEntity
  8
O
 62
     7
100
AcDbTrace
 10
224.7146
 20
-96.0598
 30
0.0
 11
225.2724
 21
-96.2795
 31
0.0
 12
224.7146
 22
-96.4992
 32
0.0
 13
224.7146
 23
-96.4992
 33
0.0
  0
ENDBLK
  5
57B
330
56B
100
AcDbEntity
  8
O
100
AcDbBlockEnd
  0
BLOCK
  5
57C
330
57D
100
AcDbEntity
  8
O
100
AcDbBlockBegin
  2
Group13
 70
     0
 10
0.0
 20
0.0
 30
0.0
  3
Group13
  1

  0
LWPOLYLINE
  5
57E
330
57D
100
AcDbEntity
  8
O
  6
Continuous
 62
     7
100
AcDbPolyline
 90
        5
 70
     0
 43
0.0069
 10
44.5112
 20
-48.9894
 10
46.0112
 20
-48.9894
 10
46.0112
 20
-50.7242
 10
44.5112
 20
-50.7242
 10
44.5112
 20
-48.9894
  0
LWPOLYLINE
  5
585
330
57D
100
AcDbEntity
  8
O
  6
Continuous
 62
     7
100
AcDbPolyline
 90
        2
 70
     0
 43
0.0069
 10
44.455
 20
-49.7255
 10
46.1111
 20
-49.7255
  0
LWPOLYLINE
  5
589
330
57D
100
AcDbEntity
  8
O
  6
Continuous
 62
     7
100
AcDbPolyline
 90
        2
 70
     0
 43
0.0069
 10
44.4243
 20
-50.2162
 10
46.0805
 20
-50.2162
  0
ENDBLK
  5
58D
330
57D
100
AcDbEntity
  8
O
100
AcDbBlockEnd
  0
BLOCK
  5
58E
330
58F
100
AcDbEntity
  8
O
100
AcDbBlockBegin
  2
Group14
 70
     0
 10
0.0
 20
0.0
 30
0.0
  3
Group14
  1

  0
LWPOLYLINE
  5
590
330
58F
100
AcDbEntity
  8
O
  6
Continuous
 62
     7
100
AcDbPolyline
 90
        5
 70
     0
 43
0.0139
 10
39.2694
 20
-45.8634
 10
51.2693
 20
-45.8634
 10
51.2693
 20
-53.5634
 10
39.2694
 20
-53.5634
 10
39.2694
 20
-45.8634
  0
LWPOLYLINE
  5
597
330
58F
100
AcDbEntity
  8
O
  6
Continuous
 62
     7
100
AcDbPolyline
 90
        5
 70
     0
 43
0.0139
 10
39.2694
 20
-53.5634
 10
40.2694
 20
-53.5634
 10
40.2694
 20
-57.5634
 10
39.2694
 20
-57.5634
 10
39.2694
 20
-53.5634
  0
LWPOLYLINE
  5
59E
330
58F
100
AcDbEntity
  8
O
  6
Continuous
 62
     7
100
AcDbPolyline
 90
        5
 70
     0
 43
0.0139
 10
50.2677
 20
-53.5634
 10
51.2677
 20
-53.5634
 10
51.2677
 20
-57.5634
 10
50.2677
 20
-57.5634
 10
50.2677
 20
-53.5634
  0
LWPOLYLINE
  5
5A5
330
58F
100
AcDbEntity
  8
O
  6
Continuous
 62
     7
100
AcDbPolyline
 90
        5
 70
     0
 43
0.0139
 10
40.9194
 20
-53.5634
 10
41.6193
 20
-53.5634
 10
41.6193
 20
-54.5634
 10
40.9194
 20
-54.5634
 10
40.9194
 20
-53.5634
  0
LWPOLYLINE
  5
5AC
330
58F
100
AcDbEntity
  8
O
  6
Continuous
 62
     7
100
AcDbPolyline
 90
        5
 70
     0
 43
0.0139
 10
42.9193
 20
-53.5634
 10
43.6193
 20
-53.5634
 10
43.6193
 20
-54.5634
 10
42.9193
 20
-54.5634
 10
42.9193
 20
-53.5634
  0
LWPOLYLINE
  5
5B3
330
58F
100
AcDbEntity
  8
O
  6
Continuous
 62
     7
100
AcDbPolyline
 90
        5
 70
     0
 43
0.0139
 10
44.9193
 20
-53.5634
 10
45.6193
 20
-53.5634
 10
45.6193
 20
-54.5634
 10
44.9193
 20
-54.5634
 10
44.9193
 20
-53.5634
  0
LWPOLYLINE
  5
5BA
330
58F
100
AcDbEntity
  8
O
  6
Continuous
 62
     7
100
AcDbPolyline
 90
        5
 70
     0
 43
0.0139
 10
46.9193
 20
-53.5634
 10
47.6193
 20
-53.5634
 10
47.6193
 20
-54.5634
 10
46.9193
 20
-54.5634
 10
46.9193
 20
-53.5634
  0
LWPOLYLINE
  5
5C1
330
58F
100
AcDbEntity
  8
O
  6
Continuous
 62
     7
100
AcDbPolyline
 90
        5
 70
     0
 43
0.0139
 10
48.9193
 20
-53.5634
 10
49.6193
 20
-53.5634
 10
49.6193
 20
-54.5634
 10
48.9193
 20
-54.5634
 10
48.9193
 20
-53.5634
  0
LWPOLYLINE
  5
5C8
330
58F
100
AcDbEntity
  8
O
  6
Continuous
 62
     7
100
AcDbPolyline
 90
        2
 70
     0
 43
0.0139
 10
39.3291
 20
-47.0266
 10
51.4114
 20
-47.0266
  0
LWPOLYLINE
  5
5CC
330
58F
100
AcDbEntity
  8
O
  6
Continuous
 62
     7
100
AcDbPolyline
 90
        2
 70
     0
 43
0.0069
 10
39.3291
 20
-45.7998
 10
40.1265
 20
-47.1492
  0
LWPOLYLINE
  5
5D0
330
58F
100
AcDbEntity
  8
O
  6
Continuous
 62
     7
100
AcDbPolyline
 90
        2
 70
     0
 43
0.0069
 10
51.2677
 20
-45.8611
 10
50.2459
 20
-47.1139
  0
LWPOLYLINE
  5
5D4
330
58F
100
AcDbEntity
  8
O
  6
Continuous
 62
     7
100
AcDbPolyline
 90
        5
 70
     0
 43
0.0069
 10
39.2677
 20
-47.0266
 10
43.2677
 20
-47.0266
 10
43.2677
 20
-51.443
 10
39.2677
 20
-51.443
 10
39.2677
 20
-47.0266
  0
LWPOLYLINE
  5
5DB
330
58F
100
AcDbEntity
  8
O
  6
Continuous
 62
     7
100
AcDbPolyline
 90
        5
 70
     0
 43
0.0069
 10
47.3339
 20
-47.1492
 10
51.3339
 20
-47.1492
 10
51.3339
 20
-51.5657
 10
47.3339
 20
-51.5657
 10
47.3339
 20
-47.1492
  0
INSERT
  5
5E2
330
58F
100
AcDbEntity
  8
O
100
AcDbBlockReference
  2
Group13
 10
0.0
 20
0.0
 30
0.0
  0
ENDBLK
  5
5E3
330
58F
100
AcDbEntity
  8
O
100
AcDbBlockEnd
  0
BLOCK
  5
5E4
330
5E5
100
AcDbEntity
  8
O
100
AcDbBlockBegin
  2
Group15
 70
     0
 10
0.0
 20
0.0
 30
0.0
  3
Group15
  1

  0
LWPOLYLINE
  5
5E6
330
5E5
100
AcDbEntity
  8
O
  6
Continuous
 62
     7
100
AcDbPolyline
 90
        5
 70
     0
 43
0.0069
 10
57.5112
 20
-48.9894
 10
59.0112
 20
-48.9894
 10
59.0112
 20
-50.7242
 10
57.5112
 20
-50.7242
 10
57.5112
 20
-48.9894
  0
LWPOLYLINE
  5
5ED
330
5E5
100
AcDbEntity
  8
O
  6
Continuous
 62
     7
100
AcDbPolyline
 90
        2
 70
     0
 43
0.0069
 10
57.455
 20
-49.7255
 10
59.1111
 20
-49.7255
  0
LWPOLYLINE
  5
5F1
330
5E5
100
AcDbEntity
  8
O
  6
Continuous
 62
     7
100
AcDbPolyline
 90
        2
 70
     0
 43
0.0069
 10
57.4243
 20
-50.2162
 10
59.0805
 20
-50.2162
  0
ENDBLK
  5
5F5
330
5E5
100
AcDbEntity
  8
O
100
AcDbBlockEnd
  0
BLOCK
  5
5F6
330
5F7
100
AcDbEntity
  8
O
100
AcDbBlockBegin
  2
Group16
 70
     0
 10
0.0
 20
0.0
 30
0.0
  3
Group16
  1

  0
LWPOLYLINE
  5
5F8
330
5F7
100
AcDbEntity
  8
O
  6
Continuous
 62
     7
100
AcDbPolyline
 90
        5
 70
     0
 43
0.0139
 10
52.2694
 20
-45.8634
 10
64.2693
 20
-45.8634
 10
64.2693
 20
-53.5634
 10
52.2694
 20
-53.5634
 10
52.2694
 20
-45.8634
  0
LWPOLYLINE
  5
5FF
330
5F7
100
AcDbEntity
  8
O
  6
Continuous
 62
     7
100
AcDbPolyline
 90
        5
 70
     0
 43
0.0139
 10
52.2694
 20
-53.5634
 10
53.2694
 20
-53.5634
 10
53.2694
 20
-57.5634
 10
52.2694
 20
-57.5634
 10
52.2694
 20
-53.5634
  0
LWPOLYLINE
  5
606
330
5F7
100
AcDbEntity
  8
O
  6
Continuous
 62
     7
100
AcDbPolyline
 90
        5
 70
     0
 43
0.0139
 10
63.2677
 20
-53.5634
 10
64.2677
 20
-53.5634
 10
64.2677
 20
-57.5634
 10
63.2677
 20
-57.5634
 10
63.2677
 20
-53.5634
  0
LWPOLYLINE
  5
60D
330
5F7
100
AcDbEntity
  8
O
  6
Continuous
 62
     7
100
AcDbPolyline
 90
        5
 70
     0
 43
0.0139
 10
53.9194
 20
-53.5634
 10
54.6193
 20
-53.5634
 10
54.6193
 20
-54.5634
 10
53.9194
 20
-54.5634
 10
53.9194
 20
-53.5634
  0
LWPOLYLINE
  5
614
330
5F7
100
AcDbEntity
  8
O
  6
Continuous
 62
     7
100
AcDbPolyline
 90
        5
 70
     0
 43
0.0139
 10
55.9193
 20
-53.5634
 10
56.6193
 20
-53.5634
 10
56.6193
 20
-54.5634
 10
55.9193
 20
-54.5634
 10
55.9193
 20
-53.5634
  0
LWPOLYLINE
  5
61B
330
5F7
100
AcDbEntity
  8
O
  6
Continuous
 62
     7
100
AcDbPolyline
 90
        5
 70
     0
 43
0.0139
 10
57.9193
 20
-53.5634
 10
58.6193
 20
-53.5634
 10
58.6193
 20
-54.5634
 10
57.9193
 20
-54.5634
 10
57.9193
 20
-53.5634
  0
LWPOLYLINE
  5
622
330
5F7
100
AcDbEntity
  8
O
  6
Continuous
 62
     7
100
AcDbPolyline
 90
        5
 70
     0
 43
0.0139
 10
59.9193
 20
-53.5634
 10
60.6193
 20
-53.5634
 10
60.6193
 20
-54.5634
 10
59.9193
 20
-54.5634
 10
59.9193
 20
-53.5634
  0
LWPOLYLINE
  5
629
330
5F7
100
AcDbEntity
  8
O
  6
Continuous
 62
     7
100
AcDbPolyline
 90
        5
 70
     0
 43
0.0139
 10
61.9193
 20
-53.5634
 10
62.6193
 20
-53.5634
 10
62.6193
 20
-54.5634
 10
61.9193
 20
-54.5634
 10
61.9193
 20
-53.5634
  0
LWPOLYLINE
  5
630
330
5F7
100
AcDbEntity
  8
O
  6
Continuous
 62
     7
100
AcDbPolyline
 90
        2
 70
     0
 43
0.0139
 10
52.3291
 20
-47.0266
 10
64.4114
 20
-47.0266
  0
LWPOLYLINE
  5
634
330
5F7
100
AcDbEntity
  8
O
  6
Continuous
 62
     7
100
AcDbPolyline
 90
        2
 70
     0
 43
0.0069
 10
52.3291
 20
-45.7998
 10
53.1265
 20
-47.1492
  0
LWPOLYLINE
  5
638
330
5F7
100
AcDbEntity
  8
O
  6
Continuous
 62
     7
100
AcDbPolyline
 90
        2
 70
     0
 43
0.0069
 10
64.2677
 20
-45.8611
 10
63.2459
 20
-47.1139
  0
LWPOLYLINE
  5
63C
330
5F7
100
AcDbEntity
  8
O
  6
Continuous
 62
     7
100
AcDbPolyline
 90
        5
 70
     0
 43
0.0069
 10
52.2677
 20
-47.0266
 10
56.2677
 20
-47.0266
 10
56.2677
 20
-51.443
 10
52.2677
 20
-51.443
 10
52.2677
 20
-47.0266
  0
LWPOLYLINE
  5
643
330
5F7
100
AcDbEntity
  8
O
  6
Continuous
 62
     7
100
AcDbPolyline
 90
        5
 70
     0
 43
0.0069
 10
60.3339
 20
-47.1492
 10
64.3339
 20
-47.1492
 10
64.3339
 20
-51.5657
 10
60.3339
 20
-51.5657
 10
60.3339
 20
-47.1492
  0
INSERT
  5
64A
330
5F7
100
AcDbEntity
  8
O
100
AcDbBlockReference
  2
Group15
 10
0.0
 20
0.0
 30
0.0
  0
ENDBLK
  5
64B
330
5F7
100
AcDbEntity
  8
O
100
AcDbBlockEnd
  0
BLOCK
  5
64C
330
64D
100
AcDbEntity
  8
O
100
AcDbBlockBegin
  2
Group17
 70
     0
 10
0.0
 20
0.0
 30
0.0
  3
Group17
  1

  0
LWPOLYLINE
  5
64E
330
64D
100
AcDbEntity
  8
O
  6
Continuous
 62
     7
100
AcDbPolyline
 90
        5
 70
     0
 43
0.0139
 10
72.2677
 20
-39.7998
 10
82.2677
 20
-39.7998
 10
82.2677
 20
-52.7998
 10
72.2677
 20
-52.7998
 10
72.2677
 20
-39.7998
  0
LWPOLYLINE
  5
655
330
64D
100
AcDbEntity
  8
O
  6
Continuous
 62
     7
100
AcDbPolyline
 90
        5
 70
     0
 43
0.0139
 10
82.2677
 20
-47.7998
 10
88.2677
 20
-47.7998
 10
88.2677
 20
-52.7998
 10
82.2677
 20
-52.7998
 10
82.2677
 20
-47.7998
  0
LWPOLYLINE
  5
65C
330
64D
100
AcDbEntity
  8
O
  6
Continuous
 62
     7
100
AcDbPolyline
 90
        5
 70
     0
 43
0.0139
 10
66.2677
 20
-47.7998
 10
72.2677
 20
-47.7998
 10
72.2677
 20
-52.7998
 10
66.2677
 20
-52.7998
 10
66.2677
 20
-47.7998
  0
LWPOLYLINE
  5
663
330
64D
100
AcDbEntity
  8
O
  6
Continuous
 62
     7
100
AcDbPolyline
 90
        5
 70
     0
 43
0.0139
 10
78.7677
 20
-52.7998
 10
79.7677
 20
-52.7998
 10
79.7677
 20
-60.2998
 10
78.7677
 20
-60.2998
 10
78.7677
 20
-52.7998
  0
LWPOLYLINE
  5
66A
330
64D
100
AcDbEntity
  8
O
  6
Continuous
 62
     7
100
AcDbPolyline
 90
        5
 70
     0
 43
0.0139
 10
74.7677
 20
-52.7998
 10
75.7677
 20
-52.7998
 10
75.7677
 20
-60.2998
 10
74.7677
 20
-60.2998
 10
74.7677
 20
-52.7998
  0
ENDBLK
  5
671
330
64D
100
AcDbEntity
  8
O
100
AcDbBlockEnd
  0
BLOCK
  5
672
330
673
100
AcDbEntity
  8
O
100
AcDbBlockBegin
  2
Group18
 70
     0
 10
0.0
 20
0.0
 30
0.0
  3
Group18
  1

  0
LWPOLYLINE
  5
674
330
673
100
AcDbEntity
  8
O
  6
Continuous
 62
     7
100
AcDbPolyline
 90
        5
 70
     0
 43
0.0139
 10
104.2661
 20
-45.7998
 10
90.2677
 20
-45.7998
 10
90.2677
 20
-53.2998
 10
104.2661
 20
-53.2998
 10
104.2661
 20
-45.7998
  0
LWPOLYLINE
  5
67B
330
673
100
AcDbEntity
  8
O
  6
Continuous
 62
     7
100
AcDbPolyline
 90
        5
 70
     0
 43
0.0139
 10
104.2677
 20
-53.2998
 10
103.2677
 20
-53.2998
 10
103.2677
 20
-57.2998
 10
104.2677
 20
-57.2998
 10
104.2677
 20
-53.2998
  0
LWPOLYLINE
  5
682
330
673
100
AcDbEntity
  8
O
  6
Continuous
 62
     7
100
AcDbPolyline
 90
        5
 70
     0
 43
0.0139
 10
91.2677
 20
-53.2998
 10
90.2677
 20
-53.2998
 10
90.2677
 20
-57.2998
 10
91.2677
 20
-57.2998
 10
91.2677
 20
-53.2998
  0
LWPOLYLINE
  5
689
330
673
100
AcDbEntity
  8
O
  6
Continuous
 62
     7
100
AcDbPolyline
 90
        5
 70
     0
 43
0.0139
 10
96.5177
 20
-53.2998
 10
96.0177
 20
-53.2998
 10
96.0177
 20
-54.2998
 10
96.5177
 20
-54.2998
 10
96.5177
 20
-53.2998
  0
LWPOLYLINE
  5
690
330
673
100
AcDbEntity
  8
O
  6
Continuous
 62
     7
100
AcDbPolyline
 90
        2
 70
     0
 43
0.0139
 10
104.2677
 20
-46.7998
 10
90.2677
 20
-46.7998
  0
LWPOLYLINE
  5
694
330
673
100
AcDbEntity
  8
O
  6
Continuous
 62
     7
100
AcDbPolyline
 90
        2
 70
     0
 43
0.0069
 10
104.2677
 20
-45.7998
 10
103.2677
 20
-46.7998
  0
LWPOLYLINE
  5
698
330
673
100
AcDbEntity
  8
O
  6
Continuous
 62
     7
100
AcDbPolyline
 90
        2
 70
     0
 43
0.0069
 10
90.2677
 20
-45.7998
 10
91.2677
 20
-46.7998
  0
LWPOLYLINE
  5
69C
330
673
100
AcDbEntity
  8
O
  6
Continuous
 62
     7
100
AcDbPolyline
 90
        5
 70
     0
 43
0.0069
 10
104.2677
 20
-46.7998
 10
99.2677
 20
-46.7998
 10
99.2677
 20
-51.2998
 10
104.2677
 20
-51.2998
 10
104.2677
 20
-46.7998
  0
LWPOLYLINE
  5
6A3
330
673
100
AcDbEntity
  8
O
  6
Continuous
 62
     7
100
AcDbPolyline
 90
        5
 70
     0
 43
0.0069
 10
95.2677
 20
-46.7998
 10
90.2677
 20
-46.7998
 10
90.2677
 20
-51.2998
 10
95.2677
 20
-51.2998
 10
95.2677
 20
-46.7998
  0
LWPOLYLINE
  5
6AA
330
673
100
AcDbEntity
  8
O
  6
Continuous
 62
     7
100
AcDbPolyline
 90
        5
 70
     0
 43
0.0069
 10
98.0177
 20
-48.7998
 10
96.5177
 20
-48.7998
 10
96.5177
 20
-50.7998
 10
98.0177
 20
-50.7998
 10
98.0177
 20
-48.7998
  0
LWPOLYLINE
  5
6B1
330
673
100
AcDbEntity
  8
O
  6
Continuous
 62
     7
100
AcDbPolyline
 90
        2
 70
     0
 43
0.0069
 10
98.0177
 20
-49.2998
 10
96.5177
 20
-49.2998
  0
LWPOLYLINE
  5
6B5
330
673
100
AcDbEntity
  8
O
  6
Continuous
 62
     7
100
AcDbPolyline
 90
        2
 70
     0
 43
0.0069
 10
98.0177
 20
-49.7998
 10
96.5177
 20
-49.7998
  0
LWPOLYLINE
  5
6B9
330
673
100
AcDbEntity
  8
O
  6
Continuous
 62
     7
100
AcDbPolyline
 90
        5
 70
     0
 43
0.0139
 10
102.5177
 20
-53.2998
 10
102.0177
 20
-53.2998
 10
102.0177
 20
-54.2998
 10
102.5177
 20
-54.2998
 10
102.5177
 20
-53.2998
  0
LWPOLYLINE
  5
6C0
330
673
100
AcDbEntity
  8
O
  6
Continuous
 62
     7
100
AcDbPolyline
 90
        5
 70
     0
 43
0.0139
 10
98.5177
 20
-53.2998
 10
98.0177
 20
-53.2998
 10
98.0177
 20
-54.2998
 10
98.5177
 20
-54.2998
 10
98.5177
 20
-53.2998
  0
LWPOLYLINE
  5
6C7
330
673
100
AcDbEntity
  8
O
  6
Continuous
 62
     7
100
AcDbPolyline
 90
        5
 70
     0
 43
0.0139
 10
100.5177
 20
-53.2998
 10
100.0177
 20
-53.2998
 10
100.0177
 20
-54.2998
 10
100.5177
 20
-54.2998
 10
100.5177
 20
-53.2998
  0
LWPOLYLINE
  5
6CE
330
673
100
AcDbEntity
  8
O
  6
Continuous
 62
     7
100
AcDbPolyline
 90
        5
 70
     0
 43
0.0139
 10
94.5177
 20
-53.2998
 10
94.0177
 20
-53.2998
 10
94.0177
 20
-54.2998
 10
94.5177
 20
-54.2998
 10
94.5177
 20
-53.2998
  0
LWPOLYLINE
  5
6D5
330
673
100
AcDbEntity
  8
O
  6
Continuous
 62
     7
100
AcDbPolyline
 90
        5
 70
     0
 43
0.0139
 10
92.5177
 20
-53.2998
 10
92.0177
 20
-53.2998
 10
92.0177
 20
-54.2998
 10
92.5177
 20
-54.2998
 10
92.5177
 20
-53.2998
  0
ENDBLK
  5
6DC
330
673
100
AcDbEntity
  8
O
100
AcDbBlockEnd
  0
BLOCK
  5
6DD
330
6DE
100
AcDbEntity
  8
O
100
AcDbBlockBegin
  2
Group19
 70
     0
 10
0.0
 20
0.0
 30
0.0
  3
Group19
  1

  0
LWPOLYLINE
  5
6DF
330
6DE
100
AcDbEntity
  8
O
  6
Continuous
 62
     7
100
AcDbPolyline
 90
        2
 70
     0
 43
0.0069
 10
129.6957
 20
-49.2998
 10
131.1957
 20
-49.2998
  0
LWPOLYLINE
  5
6E3
330
6DE
100
AcDbEntity
  8
O
  6
Continuous
 62
     7
100
AcDbPolyline
 90
        5
 70
     0
 43
0.0139
 10
125.4457
 20
-45.7998
 10
135.4441
 20
-45.7998
 10
135.4441
 20
-53.2998
 10
125.4457
 20
-53.2998
 10
125.4457
 20
-45.7998
  0
LWPOLYLINE
  5
6EA
330
6DE
100
AcDbEntity
  8
O
  6
Continuous
 62
     7
100
AcDbPolyline
 90
        5
 70
     0
 43
0.0139
 10
125.4441
 20
-53.2998
 10
126.4441
 20
-53.2998
 10
126.4441
 20
-57.2998
 10
125.4441
 20
-57.2998
 10
125.4441
 20
-53.2998
  0
LWPOLYLINE
  5
6F1
330
6DE
100
AcDbEntity
  8
O
  6
Continuous
 62
     7
100
AcDbPolyline
 90
        5
 70
     0
 43
0.0139
 10
134.4441
 20
-53.2998
 10
135.4441
 20
-53.2998
 10
135.4441
 20
-57.2998
 10
134.4441
 20
-57.2998
 10
134.4441
 20
-53.2998
  0
LWPOLYLINE
  5
6F8
330
6DE
100
AcDbEntity
  8
O
  6
Continuous
 62
     7
100
AcDbPolyline
 90
        5
 70
     0
 43
0.0139
 10
133.1941
 20
-53.2998
 10
133.6941
 20
-53.2998
 10
133.6941
 20
-54.2998
 10
133.1941
 20
-54.2998
 10
133.1941
 20
-53.2998
  0
LWPOLYLINE
  5
6FF
330
6DE
100
AcDbEntity
  8
O
  6
Continuous
 62
     7
100
AcDbPolyline
 90
        2
 70
     0
 43
0.0139
 10
125.4457
 20
-46.7998
 10
135.4457
 20
-46.7998
  0
LWPOLYLINE
  5
703
330
6DE
100
AcDbEntity
  8
O
  6
Continuous
 62
     7
100
AcDbPolyline
 90
        2
 70
     0
 43
0.0069
 10
125.4441
 20
-45.7998
 10
126.4441
 20
-46.7998
  0
LWPOLYLINE
  5
707
330
6DE
100
AcDbEntity
  8
O
  6
Continuous
 62
     7
100
AcDbPolyline
 90
        2
 70
     0
 43
0.0069
 10
135.4441
 20
-45.7998
 10
134.4441
 20
-46.7998
  0
LWPOLYLINE
  5
70B
330
6DE
100
AcDbEntity
  8
O
  6
Continuous
 62
     7
100
AcDbPolyline
 90
        5
 70
     0
 43
0.0069
 10
125.4441
 20
-46.7998
 10
128.4441
 20
-46.7998
 10
128.4441
 20
-51.2998
 10
125.4441
 20
-51.2998
 10
125.4441
 20
-46.7998
  0
LWPOLYLINE
  5
712
330
6DE
100
AcDbEntity
  8
O
  6
Continuous
 62
     7
100
AcDbPolyline
 90
        5
 70
     0
 43
0.0069
 10
132.4441
 20
-46.7998
 10
135.4441
 20
-46.7998
 10
135.4441
 20
-51.2998
 10
132.4441
 20
-51.2998
 10
132.4441
 20
-46.7998
  0
LWPOLYLINE
  5
719
330
6DE
100
AcDbEntity
  8
O
  6
Continuous
 62
     7
100
AcDbPolyline
 90
        5
 70
     0
 43
0.0069
 10
129.6941
 20
-48.7998
 10
131.1941
 20
-48.7998
 10
131.1941
 20
-50.7998
 10
129.6941
 20
-50.7998
 10
129.6941
 20
-48.7998
  0
LWPOLYLINE
  5
720
330
6DE
100
AcDbEntity
  8
O
  6
Continuous
 62
     7
100
AcDbPolyline
 90
        2
 70
     0
 43
0.0069
 10
129.6941
 20
-49.7998
 10
131.1941
 20
-49.7998
  0
LWPOLYLINE
  5
724
330
6DE
100
AcDbEntity
  8
O
  6
Continuous
 62
     7
100
AcDbPolyline
 90
        5
 70
     0
 43
0.0139
 10
127.1941
 20
-53.2998
 10
127.6941
 20
-53.2998
 10
127.6941
 20
-54.2998
 10
127.1941
 20
-54.2998
 10
127.1941
 20
-53.2998
  0
LWPOLYLINE
  5
72B
330
6DE
100
AcDbEntity
  8
O
  6
Continuous
 62
     7
100
AcDbPolyline
 90
        5
 70
     0
 43
0.0139
 10
131.1941
 20
-53.2998
 10
131.6941
 20
-53.2998
 10
131.6941
 20
-54.2998
 10
131.1941
 20
-54.2998
 10
131.1941
 20
-53.2998
  0
LWPOLYLINE
  5
732
330
6DE
100
AcDbEntity
  8
O
  6
Continuous
 62
     7
100
AcDbPolyline
 90
        5
 70
     0
 43
0.0139
 10
129.1941
 20
-53.2998
 10
129.6941
 20
-53.2998
 10
129.6941
 20
-54.2998
 10
129.1941
 20
-54.2998
 10
129.1941
 20
-53.2998
  0
ENDBLK
  5
739
330
6DE
100
AcDbEntity
  8
O
100
AcDbBlockEnd
  0
BLOCK
  5
73A
330
73B
100
AcDbEntity
  8
O
100
AcDbBlockBegin
  2
Group20
 70
     0
 10
0.0
 20
0.0
 30
0.0
  3
Group20
  1

  0
LWPOLYLINE
  5
73C
330
73B
100
AcDbEntity
  8
O
  6
Continuous
 62
     7
100
AcDbPolyline
 90
        5
 70
     0
 43
0.0139
 10
137.2677
 20
-45.5498
 10
170.2677
 20
-45.5498
 10
170.2677
 20
-61.0307
 10
137.2677
 20
-61.0307
 10
137.2677
 20
-45.5498
  0
LWPOLYLINE
  5
743
330
73B
100
AcDbEntity
  8
O
  6
Continuous
 62
     7
100
AcDbPolyline
 90
        2
 70
     0
 43
0.0139
 10
153.7677
 20
-61.0498
 10
153.7677
 20
-45.5498
  0
ENDBLK
  5
747
330
73B
100
AcDbEntity
  8
O
100
AcDbBlockEnd
  0
BLOCK
  5
748
330
749
100
AcDbEntity
  8
O
100
AcDbBlockBegin
  2
Group21
 70
     0
 10
0.0
 20
0.0
 30
0.0
  3
Group21
  1

  0
LWPOLYLINE
  5
74A
330
749
100
AcDbEntity
  8
O
  6
Continuous
 62
     7
100
AcDbPolyline
 90
        5
 70
     0
 43
0.0139
 10
124.4425
 20
-45.7998
 10
110.4441
 20
-45.7998
 10
110.4441
 20
-53.2998
 10
124.4425
 20
-53.2998
 10
124.4425
 20
-45.7998
  0
LWPOLYLINE
  5
751
330
749
100
AcDbEntity
  8
O
  6
Continuous
 62
     7
100
AcDbPolyline
 90
        5
 70
     0
 43
0.0139
 10
124.4441
 20
-53.2998
 10
123.4441
 20
-53.2998
 10
123.4441
 20
-57.2998
 10
124.4441
 20
-57.2998
 10
124.4441
 20
-53.2998
  0
LWPOLYLINE
  5
758
330
749
100
AcDbEntity
  8
O
  6
Continuous
 62
     7
100
AcDbPolyline
 90
        5
 70
     0
 43
0.0139
 10
111.4441
 20
-53.2998
 10
110.4441
 20
-53.2998
 10
110.4441
 20
-57.2998
 10
111.4441
 20
-57.2998
 10
111.4441
 20
-53.2998
  0
LWPOLYLINE
  5
75F
330
749
100
AcDbEntity
  8
O
  6
Continuous
 62
     7
100
AcDbPolyline
 90
        5
 70
     0
 43
0.0139
 10
116.6941
 20
-53.2998
 10
116.1941
 20
-53.2998
 10
116.1941
 20
-54.2998
 10
116.6941
 20
-54.2998
 10
116.6941
 20
-53.2998
  0
LWPOLYLINE
  5
766
330
749
100
AcDbEntity
  8
O
  6
Continuous
 62
     7
100
AcDbPolyline
 90
        2
 70
     0
 43
0.0139
 10
124.4441
 20
-46.7998
 10
110.4441
 20
-46.7998
  0
LWPOLYLINE
  5
76A
330
749
100
AcDbEntity
  8
O
  6
Continuous
 62
     7
100
AcDbPolyline
 90
        2
 70
     0
 43
0.0069
 10
124.4441
 20
-45.7998
 10
123.4441
 20
-46.7998
  0
LWPOLYLINE
  5
76E
330
749
100
AcDbEntity
  8
O
  6
Continuous
 62
     7
100
AcDbPolyline
 90
        2
 70
     0
 43
0.0069
 10
110.4441
 20
-45.7998
 10
111.4441
 20
-46.7998
  0
LWPOLYLINE
  5
772
330
749
100
AcDbEntity
  8
O
  6
Continuous
 62
     7
100
AcDbPolyline
 90
        5
 70
     0
 43
0.0069
 10
124.4441
 20
-46.7998
 10
119.4441
 20
-46.7998
 10
119.4441
 20
-51.2998
 10
124.4441
 20
-51.2998
 10
124.4441
 20
-46.7998
  0
LWPOLYLINE
  5
779
330
749
100
AcDbEntity
  8
O
  6
Continuous
 62
     7
100
AcDbPolyline
 90
        5
 70
     0
 43
0.0069
 10
115.4441
 20
-46.7998
 10
110.4441
 20
-46.7998
 10
110.4441
 20
-51.2998
 10
115.4441
 20
-51.2998
 10
115.4441
 20
-46.7998
  0
LWPOLYLINE
  5
780
330
749
100
AcDbEntity
  8
O
  6
Continuous
 62
     7
100
AcDbPolyline
 90
        5
 70
     0
 43
0.0069
 10
118.1941
 20
-48.7998
 10
116.6941
 20
-48.7998
 10
116.6941
 20
-50.7998
 10
118.1941
 20
-50.7998
 10
118.1941
 20
-48.7998
  0
LWPOLYLINE
  5
787
330
749
100
AcDbEntity
  8
O
  6
Continuous
 62
     7
100
AcDbPolyline
 90
        2
 70
     0
 43
0.0069
 10
118.1941
 20
-49.2998
 10
116.6941
 20
-49.2998
  0
LWPOLYLINE
  5
78B
330
749
100
AcDbEntity
  8
O
  6
Continuous
 62
     7
100
AcDbPolyline
 90
        2
 70
     0
 43
0.0069
 10
118.1941
 20
-49.7998
 10
116.6941
 20
-49.7998
  0
LWPOLYLINE
  5
78F
330
749
100
AcDbEntity
  8
O
  6
Continuous
 62
     7
100
AcDbPolyline
 90
        5
 70
     0
 43
0.0139
 10
122.6941
 20
-53.2998
 10
122.1941
 20
-53.2998
 10
122.1941
 20
-54.2998
 10
122.6941
 20
-54.2998
 10
122.6941
 20
-53.2998
  0
LWPOLYLINE
  5
796
330
749
100
AcDbEntity
  8
O
  6
Continuous
 62
     7
100
AcDbPolyline
 90
        5
 70
     0
 43
0.0139
 10
118.6941
 20
-53.2998
 10
118.1941
 20
-53.2998
 10
118.1941
 20
-54.2998
 10
118.6941
 20
-54.2998
 10
118.6941
 20
-53.2998
  0
LWPOLYLINE
  5
79D
330
749
100
AcDbEntity
  8
O
  6
Continuous
 62
     7
100
AcDbPolyline
 90
        5
 70
     0
 43
0.0139
 10
120.6941
 20
-53.2998
 10
120.1941
 20
-53.2998
 10
120.1941
 20
-54.2998
 10
120.6941
 20
-54.2998
 10
120.6941
 20
-53.2998
  0
LWPOLYLINE
  5
7A4
330
749
100
AcDbEntity
  8
O
  6
Continuous
 62
     7
100
AcDbPolyline
 90
        5
 70
     0
 43
0.0139
 10
114.6941
 20
-53.2998
 10
114.1941
 20
-53.2998
 10
114.1941
 20
-54.2998
 10
114.6941
 20
-54.2998
 10
114.6941
 20
-53.2998
  0
LWPOLYLINE
  5
7AB
330
749
100
AcDbEntity
  8
O
  6
Continuous
 62
     7
100
AcDbPolyline
 90
        5
 70
     0
 43
0.0139
 10
112.6941
 20
-53.2998
 10
112.1941
 20
-53.2998
 10
112.1941
 20
-54.2998
 10
112.6941
 20
-54.2998
 10
112.6941
 20
-53.2998
  0
ENDBLK
  5
7B2
330
749
100
AcDbEntity
  8
O
100
AcDbBlockEnd
  0
BLOCK
  5
7B3
330
7B4
100
AcDbEntity
  8
O
100
AcDbBlockBegin
  2
Group22
 70
     0
 10
0.0
 20
0.0
 30
0.0
  3
Group22
  1

  0
LWPOLYLINE
  5
7B5
330
7B4
100
AcDbEntity
  8
O
  6
Continuous
 62
     7
100
AcDbPolyline
 90
        5
 70
     0
 43
0.0069
 10
171.7677
 20
-66.4748
 10
177.2677
 20
-66.4748
 10
177.2677
 20
-62.2998
 10
171.7677
 20
-62.2998
 10
171.7677
 20
-66.4748
  0
LWPOLYLINE
  5
7BC
330
7B4
100
AcDbEntity
  8
O
  6
Continuous
 62
     7
100
AcDbPolyline
 90
        5
 70
     0
 43
0.0069
 10
170.5177
 20
-65.2248
 10
171.7677
 20
-65.2248
 10
171.7677
 20
-64.7248
 10
170.5177
 20
-64.7248
 10
170.5177
 20
-65.2248
  0
LWPOLYLINE
  5
7C3
330
7B4
100
AcDbEntity
  8
O
  6
Continuous
 62
     7
100
AcDbPolyline
 90
        5
 70
     0
 43
0.0069
 10
170.5177
 20
-63.9748
 10
171.7677
 20
-63.9748
 10
171.7677
 20
-63.4748
 10
170.5177
 20
-63.4748
 10
170.5177
 20
-63.9748
  0
LWPOLYLINE
  5
7CA
330
7B4
100
AcDbEntity
  8
O
  6
Continuous
 62
     7
100
AcDbPolyline
 90
        5
 70
     0
 43
0.0069
 10
175.0177
 20
-65.4748
 10
178.5177
 20
-65.4748
 10
178.5177
 20
-64.4748
 10
175.0177
 20
-64.4748
 10
175.0177
 20
-65.4748
  0
LWPOLYLINE
  5
7D1
330
7B4
100
AcDbEntity
  8
O
  6
Continuous
 62
     7
100
AcDbPolyline
 90
        5
 70
     0
 43
0.0069
 10
175.0177
 20
-64.2248
 10
178.5177
 20
-64.2248
 10
178.5177
 20
-63.2248
 10
175.0177
 20
-63.2248
 10
175.0177
 20
-64.2248
  0
ENDBLK
  5
7D8
330
7B4
100
AcDbEntity
  8
O
100
AcDbBlockEnd
  0
BLOCK
  5
7D9
330
7DA
100
AcDbEntity
  8
O
100
AcDbBlockBegin
  2
Group23
 70
     0
 10
0.0
 20
0.0
 30
0.0
  3
Group23
  1

  0
LWPOLYLINE
  5
7DB
330
7DA
100
AcDbEntity
  8
O
  6
Continuous
 62
     7
100
AcDbPolyline
 90
        2
 70
     0
 43
0.0139
 10
31.2677
 20
-7.2998
 10
31.2677
 20
-8.2998
  0
LWPOLYLINE
  5
7DF
330
7DA
100
AcDbEntity
  8
O
  6
Continuous
 62
     7
100
AcDbPolyline
 90
       10
 70
     0
 43
0.0139
 10
37.2677
 20
-8.2998
 10
37.0304
 20
-8.8813
 10
36.3848
 20
-9.3583
 10
35.4307
 20
-9.6811
 10
34.2677
 20
-9.7998
 10
34.2677
 20
-9.7998
 10
33.1047
 20
-9.6811
 10
32.1506
 20
-9.3583
 10
31.5051
 20
-8.8813
 10
31.2677
 20
-8.2998
  0
LWPOLYLINE
  5
7EB
330
7DA
100
AcDbEntity
  8
O
  6
Continuous
 62
     7
100
AcDbPolyline
 90
        2
 70
     0
 43
0.0139
 10
37.2677
 20
-7.2998
 10
37.2677
 20
-8.2998
  0
LWPOLYLINE
  5
7EF
330
7DA
100
AcDbEntity
  8
O
  6
Continuous
 62
     7
100
AcDbPolyline
 90
       22
 70
     0
 43
0.0139
 10
34.2677
 20
-8.7998
 10
34.5918
 20
-8.7998
 10
34.5918
 20
-8.7998
 10
34.7159
 20
-8.8515
 10
34.7677
 20
-8.9757
 10
34.7677
 20
-8.9757
 10
34.7677
 20
-9.6238
 10
34.7677
 20
-9.6238
 10
34.7159
 20
-9.748
 10
34.5918
 20
-9.7998
 10
34.5918
 20
-9.7998
 10
33.9437
 20
-9.7998
 10
33.9437
 20
-9.7998
 10
33.8195
 20
-9.748
 10
33.7677
 20
-9.6238
 10
33.7677
 20
-9.6238
 10
33.7677
 20
-8.9757
 10
33.7677
 20
-8.9757
 10
33.8195
 20
-8.8515
 10
33.9437
 20
-8.7998
 10
33.9437
 20
-8.7998
 10
34.2677
 20
-8.7998
  0
ENDBLK
  5
807
330
7DA
100
AcDbEntity
  8
O
100
AcDbBlockEnd
  0
BLOCK
  5
808
330
809
100
AcDbEntity
  8
O
100
AcDbBlockBegin
  2
Group24
 70
     0
 10
0.0
 20
0.0
 30
0.0
  3
Group24
  1

  0
LWPOLYLINE
  5
80A
330
809
100
AcDbEntity
  8
O
  6
Continuous
 62
     7
100
AcDbPolyline
 90
        2
 70
     0
 43
0.0139
 10
171.2677
 20
-7.2998
 10
171.2677
 20
-8.2998
  0
LWPOLYLINE
  5
80E
330
809
100
AcDbEntity
  8
O
  6
Continuous
 62
     7
100
AcDbPolyline
 90
       10
 70
     0
 43
0.0139
 10
177.2677
 20
-8.2998
 10
177.0304
 20
-8.8813
 10
176.3848
 20
-9.3583
 10
175.4307
 20
-9.6811
 10
174.2677
 20
-9.7998
 10
174.2677
 20
-9.7998
 10
173.1047
 20
-9.6811
 10
172.1506
 20
-9.3583
 10
171.5051
 20
-8.8813
 10
171.2677
 20
-8.2998
  0
LWPOLYLINE
  5
81A
330
809
100
AcDbEntity
  8
O
  6
Continuous
 62
     7
100
AcDbPolyline
 90
        2
 70
     0
 43
0.0139
 10
177.2677
 20
-7.2998
 10
177.2677
 20
-8.2998
  0
LWPOLYLINE
  5
81E
330
809
100
AcDbEntity
  8
O
  6
Continuous
 62
     7
100
AcDbPolyline
 90
       22
 70
     0
 43
0.0139
 10
174.2677
 20
-8.7998
 10
174.5918
 20
-8.7998
 10
174.5918
 20
-8.7998
 10
174.7159
 20
-8.8515
 10
174.7677
 20
-8.9757
 10
174.7677
 20
-8.9757
 10
174.7677
 20
-9.6238
 10
174.7677
 20
-9.6238
 10
174.7159
 20
-9.748
 10
174.5918
 20
-9.7998
 10
174.5918
 20
-9.7998
 10
173.9437
 20
-9.7998
 10
173.9437
 20
-9.7998
 10
173.8195
 20
-9.748
 10
173.7677
 20
-9.6238
 10
173.7677
 20
-9.6238
 10
173.7677
 20
-8.9757
 10
173.7677
 20
-8.9757
 10
173.8195
 20
-8.8515
 10
173.9437
 20
-8.7998
 10
173.9437
 20
-8.7998
 10
174.2677
 20
-8.7998
  0
ENDBLK
  5
836
330
809
100
AcDbEntity
  8
O
100
AcDbBlockEnd
  0
BLOCK
  5
837
330
838
100
AcDbEntity
  8
O
100
AcDbBlockBegin
  2
Group25
 70
     0
 10
0.0
 20
0.0
 30
0.0
  3
Group25
  1

  0
LWPOLYLINE
  5
839
330
838
100
AcDbEntity
  8
O
  6
Continuous
 62
     7
100
AcDbPolyline
 90
        2
 70
     0
 43
0.0139
 10
227.7677
 20
-111.7998
 10
226.7677
 20
-111.7998
  0
LWPOLYLINE
  5
83D
330
838
100
AcDbEntity
  8
O
  6
Continuous
 62
     7
100
AcDbPolyline
 90
       10
 70
     0
 43
0.0139
 10
226.7677
 20
-117.7998
 10
226.1862
 20
-117.5624
 10
225.7092
 20
-116.9169
 10
225.3864
 20
-115.9628
 10
225.2677
 20
-114.7998
 10
225.2677
 20
-114.7998
 10
225.3864
 20
-113.6368
 10
225.7092
 20
-112.6827
 10
226.1862
 20
-112.0371
 10
226.7677
 20
-111.7998
  0
LWPOLYLINE
  5
849
330
838
100
AcDbEntity
  8
O
  6
Continuous
 62
     7
100
AcDbPolyline
 90
        2
 70
     0
 43
0.0139
 10
227.7677
 20
-117.7998
 10
226.7677
 20
-117.7998
  0
LWPOLYLINE
  5
84D
330
838
100
AcDbEntity
  8
O
  6
Continuous
 62
     7
100
AcDbPolyline
 90
       22
 70
     0
 43
0.0139
 10
226.2677
 20
-114.7998
 10
226.2677
 20
-115.1238
 10
226.2677
 20
-115.1238
 10
226.2159
 20
-115.248
 10
226.0918
 20
-115.2998
 10
226.0918
 20
-115.2998
 10
225.4437
 20
-115.2998
 10
225.4437
 20
-115.2998
 10
225.3195
 20
-115.248
 10
225.2677
 20
-115.1238
 10
225.2677
 20
-115.1238
 10
225.2677
 20
-114.4757
 10
225.2677
 20
-114.4757
 10
225.3195
 20
-114.3515
 10
225.4437
 20
-114.2998
 10
225.4437
 20
-114.2998
 10
226.0918
 20
-114.2998
 10
226.0918
 20
-114.2998
 10
226.2159
 20
-114.3515
 10
226.2677
 20
-114.4757
 10
226.2677
 20
-114.4757
 10
226.2677
 20
-114.7998
  0
ENDBLK
  5
865
330
838
100
AcDbEntity
  8
O
100
AcDbBlockEnd
  0
BLOCK
  5
866
330
867
100
AcDbEntity
  8
O
100
AcDbBlockBegin
  2
Group26
 70
     0
 10
0.0
 20
0.0
 30
0.0
  3
Group26
  1

  0
LWPOLYLINE
  5
868
330
867
100
AcDbEntity
  8
O
  6
Continuous
 62
     7
100
AcDbPolyline
 90
        2
 70
     0
 43
0.0139
 10
227.7677
 20
-49.7998
 10
226.7677
 20
-49.7998
  0
LWPOLYLINE
  5
86C
330
867
100
AcDbEntity
  8
O
  6
Continuous
 62
     7
100
AcDbPolyline
 90
       10
 70
     0
 43
0.0139
 10
226.7677
 20
-55.7998
 10
226.1862
 20
-55.5624
 10
225.7092
 20
-54.9169
 10
225.3864
 20
-53.9628
 10
225.2677
 20
-52.7998
 10
225.2677
 20
-52.7998
 10
225.3864
 20
-51.6368
 10
225.7092
 20
-50.6827
 10
226.1862
 20
-50.0371
 10
226.7677
 20
-49.7998
  0
LWPOLYLINE
  5
878
330
867
100
AcDbEntity
  8
O
  6
Continuous
 62
     7
100
AcDbPolyline
 90
        2
 70
     0
 43
0.0139
 10
227.7677
 20
-55.7998
 10
226.7677
 20
-55.7998
  0
LWPOLYLINE
  5
87C
330
867
100
AcDbEntity
  8
O
  6
Continuous
 62
     7
100
AcDbPolyline
 90
       22
 70
     0
 43
0.0139
 10
226.2677
 20
-52.7998
 10
226.2677
 20
-53.1238
 10
226.2677
 20
-53.1238
 10
226.2159
 20
-53.248
 10
226.0918
 20
-53.2998
 10
226.0918
 20
-53.2998
 10
225.4437
 20
-53.2998
 10
225.4437
 20
-53.2998
 10
225.3195
 20
-53.248
 10
225.2677
 20
-53.1238
 10
225.2677
 20
-53.1238
 10
225.2677
 20
-52.4757
 10
225.2677
 20
-52.4757
 10
225.3195
 20
-52.3515
 10
225.4437
 20
-52.2998
 10
225.4437
 20
-52.2998
 10
226.0918
 20
-52.2998
 10
226.0918
 20
-52.2998
 10
226.2159
 20
-52.3515
 10
226.2677
 20
-52.4757
 10
226.2677
 20
-52.4757
 10
226.2677
 20
-52.7998
  0
ENDBLK
  5
894
330
867
100
AcDbEntity
  8
O
100
AcDbBlockEnd
  0
BLOCK
  5
895
330
896
100
AcDbEntity
  8
O
100
AcDbBlockBegin
  2
Group27
 70
     0
 10
0.0
 20
0.0
 30
0.0
  3
Group27
  1

  0
LWPOLYLINE
  5
897
330
896
100
AcDbEntity
  8
O
  6
Continuous
 62
     7
100
AcDbPolyline
 90
        5
 70
     0
 43
0.0139
 10
227.7678
 20
-66.611
 10
227.7678
 20
-62.0082
 10
223.0178
 20
-62.0082
 10
223.0178
 20
-66.611
 10
227.7678
 20
-66.611
  0
LWPOLYLINE
  5
89E
330
896
100
AcDbEntity
  8
O
  6
Continuous
 62
     7
100
AcDbPolyline
 90
        5
 70
     0
 43
0.0069
 10
225.5178
 20
-65.361
 10
225.5178
 20
-64.361
 10
223.0178
 20
-64.361
 10
223.0178
 20
-65.361
 10
225.5178
 20
-65.361
  0
LWPOLYLINE
  5
8A5
330
896
100
AcDbEntity
  8
O
  6
Continuous
 62
     7
100
AcDbPolyline
 90
        2
 70
     0
 43
0.0069
 10
223.7678
 20
-65.361
 10
223.7678
 20
-64.361
  0
LWPOLYLINE
  5
8A9
330
896
100
AcDbEntity
  8
O
  6
Continuous
 62
     7
100
AcDbPolyline
 90
        5
 70
     0
 43
0.0069
 10
225.5178
 20
-64.111
 10
225.5178
 20
-63.111
 10
223.0178
 20
-63.111
 10
223.0178
 20
-64.111
 10
225.5178
 20
-64.111
  0
LWPOLYLINE
  5
8B0
330
896
100
AcDbEntity
  8
O
  6
Continuous
 62
     7
100
AcDbPolyline
 90
        2
 70
     0
 43
0.0069
 10
223.7678
 20
-64.111
 10
223.7678
 20
-63.111
  0
TEXT
  5
8B4
330
896
100
AcDbEntity
  8
O
 62
     7
100
AcDbText
 10
226.9813
 20
-65.111
 30
0.0
 40
0.0417
  1
1
  7
ＭＳ_ゴシック
100
AcDbText
  0
TEXT
  5
8B5
330
896
100
AcDbEntity
  8
O
 62
     7
100
AcDbText
 10
226.9813
 20
-63.861
 30
0.0
 40
0.0417
  1
2
  7
ＭＳ_ゴシック
100
AcDbText
  0
TEXT
  5
8B6
330
896
100
AcDbEntity
  8
O
 62
     7
100
AcDbText
 10
227.1891
 20
-65.3048
 30
0.0
 40
0.0417
  1
ON
  7
ＭＳ_ゴシック
100
AcDbText
  0
LWPOLYLINE
  5
8B7
330
896
100
AcDbEntity
  8
O
  6
Continuous
 62
     7
100
AcDbPolyline
 90
        2
 70
     0
 43
0.0069
 10
225.2678
 20
-65.861
 10
223.5178
 20
-65.861
  0
SOLID
  5
8BB
330
896
100
AcDbEntity
  8
O
 62
     7
100
AcDbTrace
 10
224.71
 20
-65.6413
 30
0.0
 11
225.2678
 21
-65.861
 31
0.0
 12
224.71
 22
-66.0806
 32
0.0
 13
224.71
 23
-66.0806
 33
0.0
  0
ENDBLK
  5
8BC
330
896
100
AcDbEntity
  8
O
100
AcDbBlockEnd
  0
BLOCK
  5
8BD
330
8BE
100
AcDbEntity
  8
O
100
AcDbBlockBegin
  2
Group28
 70
     0
 10
0.0
 20
0.0
 30
0.0
  3
Group28
  1

  0
LWPOLYLINE
  5
8BF
330
8BE
100
AcDbEntity
  8
O
  6
Continuous
 62
     7
100
AcDbPolyline
 90
        5
 70
     0
 43
0.0069
 10
171.7677
 20
-84.7998
 10
177.2677
 20
-84.7998
 10
177.2677
 20
-97.0498
 10
171.7677
 20
-97.0498
 10
171.7677
 20
-84.7998
  0
LWPOLYLINE
  5
8C6
330
8BE
100
AcDbEntity
  8
O
  6
Continuous
 62
     7
100
AcDbPolyline
 90
        5
 70
     0
 43
0.0069
 10
170.5177
 20
-91.2998
 10
171.7677
 20
-91.2998
 10
171.7677
 20
-91.7998
 10
170.5177
 20
-91.7998
 10
170.5177
 20
-91.2998
  0
LWPOLYLINE
  5
8CD
330
8BE
100
AcDbEntity
  8
O
  6
Continuous
 62
     7
100
AcDbPolyline
 90
        5
 70
     0
 43
0.0069
 10
170.5177
 20
-92.5498
 10
171.7677
 20
-92.5498
 10
171.7677
 20
-93.0498
 10
170.5177
 20
-93.0498
 10
170.5177
 20
-92.5498
  0
LWPOLYLINE
  5
8D4
330
8BE
100
AcDbEntity
  8
O
  6
Continuous
 62
     7
100
AcDbPolyline
 90
        5
 70
     0
 43
0.0069
 10
170.5177
 20
-90.0498
 10
171.7677
 20
-90.0498
 10
171.7677
 20
-90.5498
 10
170.5177
 20
-90.5498
 10
170.5177
 20
-90.0498
  0
LWPOLYLINE
  5
8DB
330
8BE
100
AcDbEntity
  8
O
  6
Continuous
 62
     7
100
AcDbPolyline
 90
        5
 70
     0
 43
0.0069
 10
170.5177
 20
-88.7998
 10
171.7677
 20
-88.7998
 10
171.7677
 20
-89.2998
 10
170.5177
 20
-89.2998
 10
170.5177
 20
-88.7998
  0
LWPOLYLINE
  5
8E2
330
8BE
100
AcDbEntity
  8
O
  6
Continuous
 62
     7
100
AcDbPolyline
 90
        5
 70
     0
 43
0.0069
 10
170.5177
 20
-86.2998
 10
171.7677
 20
-86.2998
 10
171.7677
 20
-86.7998
 10
170.5177
 20
-86.7998
 10
170.5177
 20
-86.2998
  0
LWPOLYLINE
  5
8E9
330
8BE
100
AcDbEntity
  8
O
  6
Continuous
 62
     7
100
AcDbPolyline
 90
        5
 70
     0
 43
0.0069
 10
170.5177
 20
-87.5498
 10
171.7677
 20
-87.5498
 10
171.7677
 20
-88.0498
 10
170.5177
 20
-88.0498
 10
170.5177
 20
-87.5498
  0
LWPOLYLINE
  5
8F0
330
8BE
100
AcDbEntity
  8
O
  6
Continuous
 62
     7
100
AcDbPolyline
 90
        5
 70
     0
 43
0.0069
 10
170.5177
 20
-95.0498
 10
171.7677
 20
-95.0498
 10
171.7677
 20
-95.5498
 10
170.5177
 20
-95.5498
 10
170.5177
 20
-95.0498
  0
LWPOLYLINE
  5
8F7
330
8BE
100
AcDbEntity
  8
O
  6
Continuous
 62
     7
100
AcDbPolyline
 90
        5
 70
     0
 43
0.0069
 10
170.5177
 20
-93.7998
 10
171.7677
 20
-93.7998
 10
171.7677
 20
-94.2998
 10
170.5177
 20
-94.2998
 10
170.5177
 20
-93.7998
  0
LWPOLYLINE
  5
8FE
330
8BE
100
AcDbEntity
  8
O
  6
Continuous
 62
     7
100
AcDbPolyline
 90
        5
 70
     0
 43
0.0069
 10
175.0177
 20
-86.0498
 10
178.5177
 20
-86.0498
 10
178.5177
 20
-87.0498
 10
175.0177
 20
-87.0498
 10
175.0177
 20
-86.0498
  0
LWPOLYLINE
  5
905
330
8BE
100
AcDbEntity
  8
O
  6
Continuous
 62
     7
100
AcDbPolyline
 90
        5
 70
     0
 43
0.0069
 10
175.0177
 20
-87.2998
 10
178.5177
 20
-87.2998
 10
178.5177
 20
-88.2998
 10
175.0177
 20
-88.2998
 10
175.0177
 20
-87.2998
  0
LWPOLYLINE
  5
90C
330
8BE
100
AcDbEntity
  8
O
  6
Continuous
 62
     7
100
AcDbPolyline
 90
        5
 70
     0
 43
0.0069
 10
175.0177
 20
-88.5498
 10
178.5177
 20
-88.5498
 10
178.5177
 20
-89.5498
 10
175.0177
 20
-89.5498
 10
175.0177
 20
-88.5498
  0
LWPOLYLINE
  5
913
330
8BE
100
AcDbEntity
  8
O
  6
Continuous
 62
     7
100
AcDbPolyline
 90
        5
 70
     0
 43
0.0069
 10
175.0177
 20
-89.7998
 10
178.5177
 20
-89.7998
 10
178.5177
 20
-90.7998
 10
175.0177
 20
-90.7998
 10
175.0177
 20
-89.7998
  0
LWPOLYLINE
  5
91A
330
8BE
100
AcDbEntity
  8
O
  6
Continuous
 62
     7
100
AcDbPolyline
 90
        5
 70
     0
 43
0.0069
 10
175.0177
 20
-91.0498
 10
178.5177
 20
-91.0498
 10
178.5177
 20
-92.0498
 10
175.0177
 20
-92.0498
 10
175.0177
 20
-91.0498
  0
LWPOLYLINE
  5
921
330
8BE
100
AcDbEntity
  8
O
  6
Continuous
 62
     7
100
AcDbPolyline
 90
        5
 70
     0
 43
0.0069
 10
175.0177
 20
-92.2998
 10
178.5177
 20
-92.2998
 10
178.5177
 20
-93.2998
 10
175.0177
 20
-93.2998
 10
175.0177
 20
-92.2998
  0
LWPOLYLINE
  5
928
330
8BE
100
AcDbEntity
  8
O
  6
Continuous
 62
     7
100
AcDbPolyline
 90
        5
 70
     0
 43
0.0069
 10
175.0177
 20
-93.5498
 10
178.5177
 20
-93.5498
 10
178.5177
 20
-94.5498
 10
175.0177
 20
-94.5498
 10
175.0177
 20
-93.5498
  0
LWPOLYLINE
  5
92F
330
8BE
100
AcDbEntity
  8
O
  6
Continuous
 62
     7
100
AcDbPolyline
 90
        5
 70
     0
 43
0.0069
 10
175.0177
 20
-94.7998
 10
178.5177
 20
-94.7998
 10
178.5177
 20
-95.7998
 10
175.0177
 20
-95.7998
 10
175.0177
 20
-94.7998
  0
ENDBLK
  5
936
330
8BE
100
AcDbEntity
  8
O
100
AcDbBlockEnd
  0
BLOCK
  5
937
330
938
100
AcDbEntity
  8
O
100
AcDbBlockBegin
  2
Group29
 70
     0
 10
0.0
 20
0.0
 30
0.0
  3
Group29
  1

  0
LWPOLYLINE
  5
939
330
938
100
AcDbEntity
  8
O
  6
Continuous
 62
     7
100
AcDbPolyline
 90
        2
 70
     0
 43
0.0139
 10
235.2677
 20
-47.7998
 10
236.7677
 20
-47.7998
  0
LWPOLYLINE
  5
93D
330
938
100
AcDbEntity
  8
O
  6
Continuous
 62
     7
100
AcDbPolyline
 90
        2
 70
     0
 43
0.0139
 10
235.2677
 20
-47.7998
 10
235.2677
 20
-121.2998
  0
LWPOLYLINE
  5
941
330
938
100
AcDbEntity
  8
O
  6
Continuous
 62
     7
100
AcDbPolyline
 90
        2
 70
     0
 43
0.0139
 10
236.7677
 20
-47.7998
 10
236.7677
 20
-121.2998
  0
LWPOLYLINE
  5
945
330
938
100
AcDbEntity
  8
O
  6
Continuous
 62
     7
100
AcDbPolyline
 90
        5
 70
     0
 43
0.0139
 10
236.7677
 20
-121.2998
 10
236.649
 20
-121.8813
 10
236.3263
 20
-122.3583
 10
235.8492
 20
-122.6811
 10
235.2677
 20
-122.7998
  0
LWPOLYLINE
  5
94C
330
938
100
AcDbEntity
  8
O
  6
Continuous
 62
     7
100
AcDbPolyline
 90
        5
 70
     0
 43
0.0139
 10
229.2677
 20
-111.7998
 10
235.2677
 20
-111.7998
 10
235.2677
 20
-117.7998
 10
229.2677
 20
-117.7998
 10
229.2677
 20
-111.7998
  0
LWPOLYLINE
  5
953
330
938
100
AcDbEntity
  8
O
  6
Continuous
 62
     7
100
AcDbPolyline
 90
        2
 70
     0
 43
0.0139
 10
235.2677
 20
-121.2998
 10
207.7677
 20
-121.2998
  0
LWPOLYLINE
  5
957
330
938
100
AcDbEntity
  8
O
  6
Continuous
 62
     7
100
AcDbPolyline
 90
        2
 70
     0
 43
0.0139
 10
235.2677
 20
-122.7998
 10
207.7677
 20
-122.7998
  0
LWPOLYLINE
  5
95B
330
938
100
AcDbEntity
  8
O
  6
Continuous
 62
     7
100
AcDbPolyline
 90
        2
 70
     0
 43
0.0139
 10
207.7677
 20
-121.2998
 10
207.7677
 20
-122.7998
  0
LWPOLYLINE
  5
95F
330
938
100
AcDbEntity
  8
O
  6
Continuous
 62
     7
100
AcDbPolyline
 90
        5
 70
     0
 43
0.0139
 10
229.2677
 20
-49.7998
 10
235.2677
 20
-49.7998
 10
235.2677
 20
-55.7998
 10
229.2677
 20
-55.7998
 10
229.2677
 20
-49.7998
  0
LWPOLYLINE
  5
966
330
938
100
AcDbEntity
  8
O
  6
Continuous
 62
     7
100
AcDbPolyline
 90
        5
 70
     0
 43
0.0139
 10
17.2677
 20
0.2002
 10
191.2677
 20
0.2002
 10
191.2677
 20
-1.2998
 10
17.2677
 20
-1.2998
 10
17.2677
 20
0.2002
  0
LWPOLYLINE
  5
96D
330
938
100
AcDbEntity
  8
O
  6
Continuous
 62
     7
100
AcDbPolyline
 90
        2
 70
     0
 43
0.0139
 10
17.2677
 20
-1.2998
 10
17.2677
 20
-12.2998
  0
LWPOLYLINE
  5
971
330
938
100
AcDbEntity
  8
O
  6
Continuous
 62
     7
100
AcDbPolyline
 90
        5
 70
     0
 43
0.0139
 10
31.2677
 20
-1.2998
 10
37.2677
 20
-1.2998
 10
37.2677
 20
-5.7998
 10
31.2677
 20
-5.7998
 10
31.2677
 20
-1.2998
  0
LWPOLYLINE
  5
978
330
938
100
AcDbEntity
  8
O
  6
Continuous
 62
     7
100
AcDbPolyline
 90
        2
 70
     0
 43
0.0139
 10
189.2677
 20
-28.7998
 10
19.2677
 20
-28.7998
  0
LWPOLYLINE
  5
97C
330
938
100
AcDbEntity
  8
O
  6
Continuous
 62
     7
100
AcDbPolyline
 90
        5
 70
     0
 43
0.0139
 10
19.2677
 20
-28.7998
 10
18.4924
 20
-28.6415
 10
17.8563
 20
-28.2112
 10
17.4259
 20
-27.5751
 10
17.2677
 20
-26.7998
  0
LWPOLYLINE
  5
983
330
938
100
AcDbEntity
  8
O
  6
Continuous
 62
     7
100
AcDbPolyline
 90
        2
 70
     0
 43
0.0139
 10
17.2677
 20
-26.7998
 10
17.2677
 20
-17.2998
  0
LWPOLYLINE
  5
987
330
938
100
AcDbEntity
  8
O
  6
Continuous
 62
     7
100
AcDbPolyline
 90
       10
 70
     0
 43
0.0139
 10
23.2677
 20
-12.2998
 10
24.2369
 20
-12.4975
 10
25.032
 20
-13.0355
 10
25.5699
 20
-13.8306
 10
25.7677
 20
-14.7998
 10
25.7677
 20
-14.7998
 10
25.5699
 20
-15.7689
 10
25.032
 20
-16.564
 10
24.2369
 20
-17.102
 10
23.2677
 20
-17.2998
  0
LWPOLYLINE
  5
993
330
938
100
AcDbEntity
  8
O
  6
Continuous
 62
     7
100
AcDbPolyline
 90
        2
 70
     0
 43
0.0139
 10
17.2677
 20
-12.2998
 10
23.2677
 20
-12.2998
  0
LWPOLYLINE
  5
997
330
938
100
AcDbEntity
  8
O
  6
Continuous
 62
     7
100
AcDbPolyline
 90
        2
 70
     0
 43
0.0139
 10
17.2677
 20
-17.2998
 10
23.2677
 20
-17.2998
  0
LWPOLYLINE
  5
99B
330
938
100
AcDbEntity
  8
O
  6
Continuous
 62
     7
100
AcDbPolyline
 90
        5
 70
     0
 43
0.0139
 10
171.2677
 20
-1.2998
 10
177.2677
 20
-1.2998
 10
177.2677
 20
-5.7998
 10
171.2677
 20
-5.7998
 10
171.2677
 20
-1.2998
  0
LWPOLYLINE
  5
9A2
330
938
100
AcDbEntity
  8
O
  6
Continuous
 62
     7
100
AcDbPolyline
 90
        2
 70
     0
 43
0.0139
 10
189.2677
 20
-47.7998
 10
19.2677
 20
-47.7998
  0
LWPOLYLINE
  5
9A6
330
938
100
AcDbEntity
  8
O
  6
Continuous
 62
     7
100
AcDbPolyline
 90
        5
 70
     0
 43
0.0139
 10
17.2677
 20
-49.7998
 10
17.4259
 20
-49.0244
 10
17.8563
 20
-48.3884
 10
18.4924
 20
-47.958
 10
19.2677
 20
-47.7998
  0
LWPOLYLINE
  5
9AD
330
938
100
AcDbEntity
  8
O
  6
Continuous
 62
     7
100
AcDbPolyline
 90
        2
 70
     0
 43
0.0139
 10
17.2677
 20
-65.2998
 10
17.2677
 20
-102.2998
  0
LWPOLYLINE
  5
9B1
330
938
100
AcDbEntity
  8
O
  6
Continuous
 62
     7
100
AcDbPolyline
 90
       10
 70
     0
 43
0.0139
 10
23.2677
 20
-60.2998
 10
24.2369
 20
-60.4975
 10
25.032
 20
-61.0355
 10
25.5699
 20
-61.8306
 10
25.7677
 20
-62.7998
 10
25.7677
 20
-62.7998
 10
25.5699
 20
-63.7689
 10
25.032
 20
-64.564
 10
24.2369
 20
-65.102
 10
23.2677
 20
-65.2998
  0
LWPOLYLINE
  5
9BD
330
938
100
AcDbEntity
  8
O
  6
Continuous
 62
     7
100
AcDbPolyline
 90
        2
 70
     0
 43
0.0139
 10
17.2677
 20
-60.2998
 10
23.2677
 20
-60.2998
  0
LWPOLYLINE
  5
9C1
330
938
100
AcDbEntity
  8
O
  6
Continuous
 62
     7
100
AcDbPolyline
 90
        2
 70
     0
 43
0.0139
 10
17.2677
 20
-65.2998
 10
23.2677
 20
-65.2998
  0
LWPOLYLINE
  5
9C5
330
938
100
AcDbEntity
  8
O
  6
Continuous
 62
     7
100
AcDbPolyline
 90
       10
 70
     0
 43
0.0139
 10
23.2677
 20
-107.2998
 10
24.2369
 20
-107.102
 10
25.032
 20
-106.564
 10
25.5699
 20
-105.7689
 10
25.7677
 20
-104.7998
 10
25.7677
 20
-104.7998
 10
25.5699
 20
-103.8306
 10
25.032
 20
-103.0355
 10
24.2369
 20
-102.4975
 10
23.2677
 20
-102.2998
  0
LWPOLYLINE
  5
9D1
330
938
100
AcDbEntity
  8
O
  6
Continuous
 62
     7
100
AcDbPolyline
 90
        2
 70
     0
 43
0.0139
 10
17.2677
 20
-107.2998
 10
23.2677
 20
-107.2998
  0
LWPOLYLINE
  5
9D5
330
938
100
AcDbEntity
  8
O
  6
Continuous
 62
     7
100
AcDbPolyline
 90
        2
 70
     0
 43
0.0139
 10
17.2677
 20
-102.2998
 10
23.2677
 20
-102.2998
  0
LWPOLYLINE
  5
9D9
330
938
100
AcDbEntity
  8
O
  6
Continuous
 62
     7
100
AcDbPolyline
 90
        2
 70
     0
 43
0.0139
 10
17.2677
 20
-121.2998
 10
17.2677
 20
-107.2998
  0
LWPOLYLINE
  5
9DD
330
938
100
AcDbEntity
  8
O
  6
Continuous
 62
     7
100
AcDbPolyline
 90
        2
 70
     0
 43
0.0139
 10
17.2677
 20
-60.2998
 10
17.2677
 20
-49.7998
  0
LWPOLYLINE
  5
9E1
330
938
100
AcDbEntity
  8
O
  6
Continuous
 62
     7
100
AcDbPolyline
 90
        5
 70
     0
 43
0.0139
 10
17.2677
 20
-121.2998
 10
191.2677
 20
-121.2998
 10
191.2677
 20
-122.7998
 10
17.2677
 20
-122.7998
 10
17.2677
 20
-121.2998
  0
LWPOLYLINE
  5
9E8
330
938
100
AcDbEntity
  8
O
  6
Continuous
 62
     7
100
AcDbPolyline
 90
        5
 70
     0
 43
0.0139
 10
191.2677
 20
-49.7998
 10
191.1095
 20
-49.0244
 10
190.6791
 20
-48.3884
 10
190.043
 20
-47.958
 10
189.2677
 20
-47.7998
  0
LWPOLYLINE
  5
9EF
330
938
100
AcDbEntity
  8
O
  6
Continuous
 62
     7
100
AcDbPolyline
 90
        2
 70
     0
 43
0.0139
 10
191.2677
 20
-65.2998
 10
191.2677
 20
-102.2998
  0
LWPOLYLINE
  5
9F3
330
938
100
AcDbEntity
  8
O
  6
Continuous
 62
     7
100
AcDbPolyline
 90
       10
 70
     0
 43
0.0139
 10
185.2677
 20
-60.2998
 10
184.2986
 20
-60.4975
 10
183.5035
 20
-61.0355
 10
182.9655
 20
-61.8306
 10
182.7677
 20
-62.7998
 10
182.7677
 20
-62.7998
 10
182.9655
 20
-63.7689
 10
183.5035
 20
-64.564
 10
184.2986
 20
-65.102
 10
185.2677
 20
-65.2998
  0
LWPOLYLINE
  5
9FF
330
938
100
AcDbEntity
  8
O
  6
Continuous
 62
     7
100
AcDbPolyline
 90
        2
 70
     0
 43
0.0139
 10
191.2677
 20
-60.2998
 10
185.2677
 20
-60.2998
  0
LWPOLYLINE
  5
A03
330
938
100
AcDbEntity
  8
O
  6
Continuous
 62
     7
100
AcDbPolyline
 90
        2
 70
     0
 43
0.0139
 10
191.2677
 20
-65.2998
 10
185.2677
 20
-65.2998
  0
LWPOLYLINE
  5
A07
330
938
100
AcDbEntity
  8
O
  6
Continuous
 62
     7
100
AcDbPolyline
 90
       10
 70
     0
 43
0.0139
 10
185.2677
 20
-107.2998
 10
184.2986
 20
-107.102
 10
183.5035
 20
-106.564
 10
182.9655
 20
-105.7689
 10
182.7677
 20
-104.7998
 10
182.7677
 20
-104.7998
 10
182.9655
 20
-103.8306
 10
183.5035
 20
-103.0355
 10
184.2986
 20
-102.4975
 10
185.2677
 20
-102.2998
  0
LWPOLYLINE
  5
A13
330
938
100
AcDbEntity
  8
O
  6
Continuous
 62
     7
100
AcDbPolyline
 90
        2
 70
     0
 43
0.0139
 10
191.2677
 20
-107.2998
 10
185.2677
 20
-107.2998
  0
LWPOLYLINE
  5
A17
330
938
100
AcDbEntity
  8
O
  6
Continuous
 62
     7
100
AcDbPolyline
 90
        2
 70
     0
 43
0.0139
 10
191.2677
 20
-102.2998
 10
185.2677
 20
-102.2998
  0
LWPOLYLINE
  5
A1B
330
938
100
AcDbEntity
  8
O
  6
Continuous
 62
     7
100
AcDbPolyline
 90
        2
 70
     0
 43
0.0139
 10
191.2677
 20
-121.2998
 10
191.2677
 20
-107.2998
  0
LWPOLYLINE
  5
A1F
330
938
100
AcDbEntity
  8
O
  6
Continuous
 62
     7
100
AcDbPolyline
 90
        2
 70
     0
 43
0.0139
 10
191.2677
 20
-60.2998
 10
191.2677
 20
-49.7998
  0
LWPOLYLINE
  5
A23
330
938
100
AcDbEntity
  8
O
  6
Continuous
 62
     7
100
AcDbPolyline
 90
       20
 70
     0
 43
0.0139
 10
37.2677
 20
-52.7998
 10
37.0304
 20
-53.9628
 10
36.3849
 20
-54.9169
 10
35.4308
 20
-55.5624
 10
34.2677
 20
-55.7998
 10
34.2677
 20
-55.7998
 10
33.1047
 20
-55.5624
 10
32.1506
 20
-54.9169
 10
31.505
 20
-53.9628
 10
31.2677
 20
-52.7998
 10
31.2677
 20
-52.7998
 10
31.505
 20
-51.6367
 10
32.1506
 20
-50.6826
 10
33.1047
 20
-50.0371
 10
34.2677
 20
-49.7998
 10
34.2677
 20
-49.7998
 10
35.4308
 20
-50.0371
 10
36.3849
 20
-50.6826
 10
37.0304
 20
-51.6367
 10
37.2677
 20
-52.7998
  0
LWPOLYLINE
  5
A39
330
938
100
AcDbEntity
  8
O
  6
Continuous
 62
     7
100
AcDbPolyline
 90
       20
 70
     0
 43
0.0139
 10
37.2677
 20
-114.7998
 10
37.0304
 20
-115.9628
 10
36.3849
 20
-116.9169
 10
35.4308
 20
-117.5624
 10
34.2677
 20
-117.7998
 10
34.2677
 20
-117.7998
 10
33.1047
 20
-117.5624
 10
32.1506
 20
-116.9169
 10
31.505
 20
-115.9628
 10
31.2677
 20
-114.7998
 10
31.2677
 20
-114.7998
 10
31.505
 20
-113.6367
 10
32.1506
 20
-112.6826
 10
33.1047
 20
-112.0371
 10
34.2677
 20
-111.7998
 10
34.2677
 20
-111.7998
 10
35.4308
 20
-112.0371
 10
36.3849
 20
-112.6826
 10
37.0304
 20
-113.6367
 10
37.2677
 20
-114.7998
  0
LWPOLYLINE
  5
A4F
330
938
100
AcDbEntity
  8
O
  6
Continuous
 62
     7
100
AcDbPolyline
 90
       20
 70
     0
 43
0.0139
 10
177.2677
 20
-114.7998
 10
177.0304
 20
-115.9628
 10
176.3849
 20
-116.9169
 10
175.4308
 20
-117.5624
 10
174.2677
 20
-117.7998
 10
174.2677
 20
-117.7998
 10
173.1047
 20
-117.5624
 10
172.1506
 20
-116.9169
 10
171.505
 20
-115.9628
 10
171.2677
 20
-114.7998
 10
171.2677
 20
-114.7998
 10
171.505
 20
-113.6367
 10
172.1506
 20
-112.6826
 10
173.1047
 20
-112.0371
 10
174.2677
 20
-111.7998
 10
174.2677
 20
-111.7998
 10
175.4308
 20
-112.0371
 10
176.3849
 20
-112.6826
 10
177.0304
 20
-113.6367
 10
177.2677
 20
-114.7998
  0
LWPOLYLINE
  5
A65
330
938
100
AcDbEntity
  8
O
  6
Continuous
 62
     7
100
AcDbPolyline
 90
       20
 70
     0
 43
0.0139
 10
177.2677
 20
-52.7998
 10
177.0304
 20
-53.9628
 10
176.3849
 20
-54.9169
 10
175.4308
 20
-55.5624
 10
174.2677
 20
-55.7998
 10
174.2677
 20
-55.7998
 10
173.1047
 20
-55.5624
 10
172.1506
 20
-54.9169
 10
171.505
 20
-53.9628
 10
171.2677
 20
-52.7998
 10
171.2677
 20
-52.7998
 10
171.505
 20
-51.6367
 10
172.1506
 20
-50.6826
 10
173.1047
 20
-50.0371
 10
174.2677
 20
-49.7998
 10
174.2677
 20
-49.7998
 10
175.4308
 20
-50.0371
 10
176.3849
 20
-50.6826
 10
177.0304
 20
-51.6367
 10
177.2677
 20
-52.7998
  0
LWPOLYLINE
  5
A7B
330
938
100
AcDbEntity
  8
O
  6
Continuous
 62
     7
100
AcDbPolyline
 90
        2
 70
     0
 43
0.0139
 10
191.2677
 20
-1.2998
 10
191.2677
 20
-12.2998
  0
LWPOLYLINE
  5
A7F
330
938
100
AcDbEntity
  8
O
  6
Continuous
 62
     7
100
AcDbPolyline
 90
        5
 70
     0
 43
0.0139
 10
189.2677
 20
-28.7998
 10
190.043
 20
-28.6415
 10
190.6791
 20
-28.2112
 10
191.1095
 20
-27.5751
 10
191.2677
 20
-26.7998
  0
LWPOLYLINE
  5
A86
330
938
100
AcDbEntity
  8
O
  6
Continuous
 62
     7
100
AcDbPolyline
 90
        2
 70
     0
 43
0.0139
 10
191.2677
 20
-26.7998
 10
191.2677
 20
-17.2998
  0
LWPOLYLINE
  5
A8A
330
938
100
AcDbEntity
  8
O
  6
Continuous
 62
     7
100
AcDbPolyline
 90
       10
 70
     0
 43
0.0139
 10
185.2677
 20
-12.2998
 10
184.2986
 20
-12.4975
 10
183.5035
 20
-13.0355
 10
182.9655
 20
-13.8306
 10
182.7677
 20
-14.7998
 10
182.7677
 20
-14.7998
 10
182.9655
 20
-15.7689
 10
183.5035
 20
-16.564
 10
184.2986
 20
-17.102
 10
185.2677
 20
-17.2998
  0
LWPOLYLINE
  5
A96
330
938
100
AcDbEntity
  8
O
  6
Continuous
 62
     7
100
AcDbPolyline
 90
        2
 70
     0
 43
0.0139
 10
191.2677
 20
-12.2998
 10
185.2677
 20
-12.2998
  0
LWPOLYLINE
  5
A9A
330
938
100
AcDbEntity
  8
O
  6
Continuous
 62
     7
100
AcDbPolyline
 90
        2
 70
     0
 43
0.0139
 10
191.2677
 20
-17.2998
 10
185.2677
 20
-17.2998
  0
LWPOLYLINE
  5
A9E
330
938
100
AcDbEntity
  8
O
  6
Continuous
 62
     7
100
AcDbPolyline
 90
       13
 70
     0
 43
0.0139
 10
33.7677
 20
-51.2998
 10
34.7677
 20
-51.2998
 10
34.7677
 20
-52.2998
 10
35.7677
 20
-52.2998
 10
35.7677
 20
-53.2998
 10
34.7677
 20
-53.2998
 10
34.7677
 20
-54.2998
 10
33.7677
 20
-54.2998
 10
33.7677
 20
-53.2998
 10
32.7677
 20
-53.2998
 10
32.7677
 20
-52.2998
 10
33.7677
 20
-52.2998
 10
33.7677
 20
-51.2998
  0
LWPOLYLINE
  5
AAD
330
938
100
AcDbEntity
  8
O
  6
Continuous
 62
     7
100
AcDbPolyline
 90
       13
 70
     0
 43
0.0139
 10
33.7677
 20
-113.2998
 10
34.7677
 20
-113.2998
 10
34.7677
 20
-114.2998
 10
35.7677
 20
-114.2998
 10
35.7677
 20
-115.2998
 10
34.7677
 20
-115.2998
 10
34.7677
 20
-116.2998
 10
33.7677
 20
-116.2998
 10
33.7677
 20
-115.2998
 10
32.7677
 20
-115.2998
 10
32.7677
 20
-114.2998
 10
33.7677
 20
-114.2998
 10
33.7677
 20
-113.2998
  0
LWPOLYLINE
  5
ABC
330
938
100
AcDbEntity
  8
O
  6
Continuous
 62
     7
100
AcDbPolyline
 90
       13
 70
     0
 43
0.0139
 10
173.7677
 20
-113.2998
 10
174.7677
 20
-113.2998
 10
174.7677
 20
-114.2998
 10
175.7677
 20
-114.2998
 10
175.7677
 20
-115.2998
 10
174.7677
 20
-115.2998
 10
174.7677
 20
-116.2998
 10
173.7677
 20
-116.2998
 10
173.7677
 20
-115.2998
 10
172.7677
 20
-115.2998
 10
172.7677
 20
-114.2998
 10
173.7677
 20
-114.2998
 10
173.7677
 20
-113.2998
  0
LWPOLYLINE
  5
ACB
330
938
100
AcDbEntity
  8
O
  6
Continuous
 62
     7
100
AcDbPolyline
 90
       13
 70
     0
 43
0.0139
 10
173.7677
 20
-51.2998
 10
174.7677
 20
-51.2998
 10
174.7677
 20
-52.2998
 10
175.7677
 20
-52.2998
 10
175.7677
 20
-53.2998
 10
174.7677
 20
-53.2998
 10
174.7677
 20
-54.2998
 10
173.7677
 20
-54.2998
 10
173.7677
 20
-53.2998
 10
172.7677
 20
-53.2998
 10
172.7677
 20
-52.2998
 10
173.7677
 20
-52.2998
 10
173.7677
 20
-51.2998
  0
LWPOLYLINE
  5
ADA
330
938
100
AcDbEntity
  8
O
  6
Continuous
 62
     7
100
AcDbPolyline
 90
        5
 70
     0
 43
0.0139
 10
29.2677
 20
-5.7998
 10
179.2677
 20
-5.7998
 10
179.2677
 20
-7.2998
 10
29.2677
 20
-7.2998
 10
29.2677
 20
-5.7998
  0
INSERT
  5
AE1
330
938
100
AcDbEntity
  8
O
100
AcDbBlockReference
  2
Group5
 10
0.0
 20
0.0
 30
0.0
  0
INSERT
  5
AE2
330
938
100
AcDbEntity
  8
O
100
AcDbBlockReference
  2
Group6
 10
0.0
 20
0.0
 30
0.0
  0
INSERT
  5
AE3
330
938
100
AcDbEntity
  8
O
100
AcDbBlockReference
  2
Group7
 10
0.0
 20
0.0
 30
0.0
  0
INSERT
  5
AE4
330
938
100
AcDbEntity
  8
O
100
AcDbBlockReference
  2
Group8
 10
0.0
 20
0.0
 30
0.0
  0
LWPOLYLINE
  5
AE5
330
938
100
AcDbEntity
  8
O
  6
Continuous
 62
     7
100
AcDbPolyline
 90
        2
 70
     0
 43
0.0139
 10
76.169
 20
-16.4299
 10
80.1695
 20
-16.4299
  0
LWPOLYLINE
  5
AE9
330
938
100
AcDbEntity
  8
O
  6
Continuous
 62
     7
100
AcDbPolyline
 90
        2
 70
     0
 43
0.0139
 10
76.169
 20
-12.4294
 10
76.169
 20
-16.4299
  0
LWPOLYLINE
  5
AED
330
938
100
AcDbEntity
  8
O
  6
Continuous
 62
     7
100
AcDbPolyline
 90
        2
 70
     0
 43
0.0139
 10
80.1695
 20
-12.4294
 10
76.169
 20
-12.4294
  0
LWPOLYLINE
  5
AF1
330
938
100
AcDbEntity
  8
O
  6
Continuous
 62
     7
100
AcDbPolyline
 90
        2
 70
     0
 43
0.0139
 10
80.1695
 20
-16.4299
 10
80.1695
 20
-12.4294
  0
LWPOLYLINE
  5
AF5
330
938
100
AcDbEntity
  8
O
  6
Continuous
 62
     7
100
AcDbPolyline
 90
        2
 70
     0
 43
0.0139
 10
71.9684
 20
-12.2294
 10
75.9689
 20
-12.2294
  0
LWPOLYLINE
  5
AF9
330
938
100
AcDbEntity
  8
O
  6
Continuous
 62
     7
100
AcDbPolyline
 90
        2
 70
     0
 43
0.0139
 10
71.9684
 20
-8.2289
 10
71.9684
 20
-12.2294
  0
LWPOLYLINE
  5
AFD
330
938
100
AcDbEntity
  8
O
  6
Continuous
 62
     7
100
AcDbPolyline
 90
        2
 70
     0
 43
0.0139
 10
75.9689
 20
-8.2289
 10
71.9684
 20
-8.2289
  0
LWPOLYLINE
  5
B01
330
938
100
AcDbEntity
  8
O
  6
Continuous
 62
     7
100
AcDbPolyline
 90
        2
 70
     0
 43
0.0139
 10
75.9689
 20
-12.2294
 10
75.9689
 20
-8.2289
  0
LWPOLYLINE
  5
B05
330
938
100
AcDbEntity
  8
O
  6
Continuous
 62
     7
100
AcDbPolyline
 90
        2
 70
     0
 43
0.0139
 10
77.1691
 20
-8.2289
 10
76.169
 20
-9.229
  0
LWPOLYLINE
  5
B09
330
938
100
AcDbEntity
  8
O
  6
Continuous
 62
     7
100
AcDbPolyline
 90
        2
 70
     0
 43
0.0139
 10
76.169
 20
-12.2294
 10
76.169
 20
-9.229
  0
LWPOLYLINE
  5
B0D
330
938
100
AcDbEntity
  8
O
  6
Continuous
 62
     7
100
AcDbPolyline
 90
        2
 70
     0
 43
0.0139
 10
79.1693
 20
-8.2289
 10
77.1691
 20
-8.2289
  0
LWPOLYLINE
  5
B11
330
938
100
AcDbEntity
  8
O
  6
Continuous
 62
     7
100
AcDbPolyline
 90
        2
 70
     0
 43
0.0139
 10
80.1695
 20
-9.229
 10
79.1693
 20
-8.2289
  0
LWPOLYLINE
  5
B15
330
938
100
AcDbEntity
  8
O
  6
Continuous
 62
     7
100
AcDbPolyline
 90
        2
 70
     0
 43
0.0139
 10
80.1695
 20
-12.2294
 10
80.1695
 20
-9.229
  0
LWPOLYLINE
  5
B19
330
938
100
AcDbEntity
  8
O
  6
Continuous
 62
     7
100
AcDbPolyline
 90
        2
 70
     0
 43
0.0139
 10
80.1695
 20
-12.2294
 10
76.169
 20
-12.2294
  0
LWPOLYLINE
  5
B1D
330
938
100
AcDbEntity
  8
O
  6
Continuous
 62
     7
100
AcDbPolyline
 90
        2
 70
     0
 43
0.0139
 10
72.9686
 20
-12.4294
 10
71.9684
 20
-13.4296
  0
LWPOLYLINE
  5
B21
330
938
100
AcDbEntity
  8
O
  6
Continuous
 62
     7
100
AcDbPolyline
 90
        2
 70
     0
 43
0.0139
 10
71.9684
 20
-16.4299
 10
71.9684
 20
-13.4296
  0
LWPOLYLINE
  5
B25
330
938
100
AcDbEntity
  8
O
  6
Continuous
 62
     7
100
AcDbPolyline
 90
        2
 70
     0
 43
0.0139
 10
74.9688
 20
-12.4294
 10
72.9686
 20
-12.4294
  0
LWPOLYLINE
  5
B29
330
938
100
AcDbEntity
  8
O
  6
Continuous
 62
     7
100
AcDbPolyline
 90
        2
 70
     0
 43
0.0139
 10
75.9689
 20
-13.4296
 10
74.9688
 20
-12.4294
  0
LWPOLYLINE
  5
B2D
330
938
100
AcDbEntity
  8
O
  6
Continuous
 62
     7
100
AcDbPolyline
 90
        2
 70
     0
 43
0.0139
 10
75.9689
 20
-16.4299
 10
75.9689
 20
-13.4296
  0
LWPOLYLINE
  5
B31
330
938
100
AcDbEntity
  8
O
  6
Continuous
 62
     7
100
AcDbPolyline
 90
        2
 70
     0
 43
0.0139
 10
75.9689
 20
-16.4299
 10
71.9684
 20
-16.4299
  0
LWPOLYLINE
  5
B35
330
938
100
AcDbEntity
  8
O
  6
Continuous
 62
     7
100
AcDbPolyline
 90
        2
 70
     0
 43
0.0139
 10
77.6691
 20
-17.3317
 10
74.4687
 20
-17.3317
  0
LWPOLYLINE
  5
B39
330
938
100
AcDbEntity
  8
O
  6
Continuous
 62
     7
100
AcDbPolyline
 90
        2
 70
     0
 43
0.0139
 10
76.169
 20
-16.4299
 10
80.1695
 20
-16.4299
  0
LWPOLYLINE
  5
B3D
330
938
100
AcDbEntity
  8
O
  6
Continuous
 62
     7
100
AcDbPolyline
 90
        2
 70
     0
 43
0.0139
 10
76.169
 20
-12.4294
 10
76.169
 20
-16.4299
  0
LWPOLYLINE
  5
B41
330
938
100
AcDbEntity
  8
O
  6
Continuous
 62
     7
100
AcDbPolyline
 90
        2
 70
     0
 43
0.0139
 10
80.1695
 20
-12.4294
 10
76.169
 20
-12.4294
  0
LWPOLYLINE
  5
B45
330
938
100
AcDbEntity
  8
O
  6
Continuous
 62
     7
100
AcDbPolyline
 90
        2
 70
     0
 43
0.0139
 10
80.1695
 20
-16.4299
 10
80.1695
 20
-12.4294
  0
LWPOLYLINE
  5
B49
330
938
100
AcDbEntity
  8
O
  6
Continuous
 62
     7
100
AcDbPolyline
 90
        2
 70
     0
 43
0.0139
 10
71.9684
 20
-12.2294
 10
75.9689
 20
-12.2294
  0
LWPOLYLINE
  5
B4D
330
938
100
AcDbEntity
  8
O
  6
Continuous
 62
     7
100
AcDbPolyline
 90
        2
 70
     0
 43
0.0139
 10
71.9684
 20
-8.2289
 10
71.9684
 20
-12.2294
  0
LWPOLYLINE
  5
B51
330
938
100
AcDbEntity
  8
O
  6
Continuous
 62
     7
100
AcDbPolyline
 90
        2
 70
     0
 43
0.0139
 10
75.9689
 20
-8.2289
 10
71.9684
 20
-8.2289
  0
LWPOLYLINE
  5
B55
330
938
100
AcDbEntity
  8
O
  6
Continuous
 62
     7
100
AcDbPolyline
 90
        2
 70
     0
 43
0.0139
 10
75.9689
 20
-12.2294
 10
75.9689
 20
-8.2289
  0
LWPOLYLINE
  5
B59
330
938
100
AcDbEntity
  8
O
  6
Continuous
 62
     7
100
AcDbPolyline
 90
        2
 70
     0
 43
0.0139
 10
77.1691
 20
-8.2289
 10
76.169
 20
-9.229
  0
LWPOLYLINE
  5
B5D
330
938
100
AcDbEntity
  8
O
  6
Continuous
 62
     7
100
AcDbPolyline
 90
        2
 70
     0
 43
0.0139
 10
76.169
 20
-12.2294
 10
76.169
 20
-9.229
  0
LWPOLYLINE
  5
B61
330
938
100
AcDbEntity
  8
O
  6
Continuous
 62
     7
100
AcDbPolyline
 90
        2
 70
     0
 43
0.0139
 10
79.1693
 20
-8.2289
 10
77.1691
 20
-8.2289
  0
LWPOLYLINE
  5
B65
330
938
100
AcDbEntity
  8
O
  6
Continuous
 62
     7
100
AcDbPolyline
 90
        2
 70
     0
 43
0.0139
 10
80.1695
 20
-9.229
 10
79.1693
 20
-8.2289
  0
LWPOLYLINE
  5
B69
330
938
100
AcDbEntity
  8
O
  6
Continuous
 62
     7
100
AcDbPolyline
 90
        2
 70
     0
 43
0.0139
 10
80.1695
 20
-12.2294
 10
80.1695
 20
-9.229
  0
LWPOLYLINE
  5
B6D
330
938
100
AcDbEntity
  8
O
  6
Continuous
 62
     7
100
AcDbPolyline
 90
        2
 70
     0
 43
0.0139
 10
80.1695
 20
-12.2294
 10
76.169
 20
-12.2294
  0
LWPOLYLINE
  5
B71
330
938
100
AcDbEntity
  8
O
  6
Continuous
 62
     7
100
AcDbPolyline
 90
        2
 70
     0
 43
0.0139
 10
72.9686
 20
-12.4294
 10
71.9684
 20
-13.4296
  0
LWPOLYLINE
  5
B75
330
938
100
AcDbEntity
  8
O
  6
Continuous
 62
     7
100
AcDbPolyline
 90
        2
 70
     0
 43
0.0139
 10
71.9684
 20
-16.4299
 10
71.9684
 20
-13.4296
  0
LWPOLYLINE
  5
B79
330
938
100
AcDbEntity
  8
O
  6
Continuous
 62
     7
100
AcDbPolyline
 90
        2
 70
     0
 43
0.0139
 10
74.9688
 20
-12.4294
 10
72.9686
 20
-12.4294
  0
LWPOLYLINE
  5
B7D
330
938
100
AcDbEntity
  8
O
  6
Continuous
 62
     7
100
AcDbPolyline
 90
        2
 70
     0
 43
0.0139
 10
75.9689
 20
-13.4296
 10
74.9688
 20
-12.4294
  0
LWPOLYLINE
  5
B81
330
938
100
AcDbEntity
  8
O
  6
Continuous
 62
     7
100
AcDbPolyline
 90
        2
 70
     0
 43
0.0139
 10
75.9689
 20
-16.4299
 10
75.9689
 20
-13.4296
  0
LWPOLYLINE
  5
B85
330
938
100
AcDbEntity
  8
O
  6
Continuous
 62
     7
100
AcDbPolyline
 90
        2
 70
     0
 43
0.0139
 10
75.9689
 20
-16.4299
 10
71.9684
 20
-16.4299
  0
LWPOLYLINE
  5
B89
330
938
100
AcDbEntity
  8
O
  6
Continuous
 62
     7
100
AcDbPolyline
 90
        2
 70
     0
 43
0.0139
 10
77.6691
 20
-17.3317
 10
74.4687
 20
-17.3317
  0
LWPOLYLINE
  5
B8D
330
938
100
AcDbEntity
  8
O
  6
Continuous
 62
     7
100
AcDbPolyline
 90
       12
 70
     0
 43
0.0139
 10
77.6691
 20
-14.4297
 10
77.8163
 20
-14.0768
 10
78.1692
 20
-13.9296
 10
78.1692
 20
-13.9296
 10
78.5221
 20
-14.0768
 10
78.6693
 20
-14.4297
 10
78.6693
 20
-14.4297
 10
78.5221
 20
-14.7826
 10
78.1692
 20
-14.9298
 10
78.1692
 20
-14.9298
 10
77.8163
 20
-14.7826
 10
77.6691
 20
-14.4297
  0
LWPOLYLINE
  5
B9B
330
938
100
AcDbEntity
  8
O
  6
Continuous
 62
     7
100
AcDbPolyline
 90
       12
 70
     0
 43
0.0139
 10
73.4686
 20
-14.4297
 10
73.6158
 20
-14.0768
 10
73.9687
 20
-13.9296
 10
73.9687
 20
-13.9296
 10
74.3216
 20
-14.0768
 10
74.4687
 20
-14.4297
 10
74.4687
 20
-14.4297
 10
74.3216
 20
-14.7826
 10
73.9687
 20
-14.9298
 10
73.9687
 20
-14.9298
 10
73.6158
 20
-14.7826
 10
73.4686
 20
-14.4297
  0
LWPOLYLINE
  5
BA9
330
938
100
AcDbEntity
  8
O
  6
Continuous
 62
     7
100
AcDbPolyline
 90
       12
 70
     0
 43
0.0139
 10
77.6691
 20
-10.2292
 10
77.8163
 20
-9.8763
 10
78.1692
 20
-9.7291
 10
78.1692
 20
-9.7291
 10
78.5221
 20
-9.8763
 10
78.6693
 20
-10.2292
 10
78.6693
 20
-10.2292
 10
78.5221
 20
-10.5821
 10
78.1692
 20
-10.7292
 10
78.1692
 20
-10.7292
 10
77.8163
 20
-10.5821
 10
77.6691
 20
-10.2292
  0
LWPOLYLINE
  5
BB7
330
938
100
AcDbEntity
  8
O
  6
Continuous
 62
     7
100
AcDbPolyline
 90
       12
 70
     0
 43
0.0139
 10
73.4686
 20
-10.2292
 10
73.6158
 20
-9.8763
 10
73.9687
 20
-9.7291
 10
73.9687
 20
-9.7291
 10
74.3216
 20
-9.8763
 10
74.4687
 20
-10.2292
 10
74.4687
 20
-10.2292
 10
74.3216
 20
-10.5821
 10
73.9687
 20
-10.7292
 10
73.9687
 20
-10.7292
 10
73.6158
 20
-10.5821
 10
73.4686
 20
-10.2292
  0
LWPOLYLINE
  5
BC5
330
938
100
AcDbEntity
  8
O
  6
Continuous
 62
     7
100
AcDbPolyline
 90
       12
 70
     0
 43
0.0139
 10
77.6691
 20
-14.4297
 10
77.8163
 20
-14.0768
 10
78.1692
 20
-13.9296
 10
78.1692
 20
-13.9296
 10
78.5221
 20
-14.0768
 10
78.6693
 20
-14.4297
 10
78.6693
 20
-14.4297
 10
78.5221
 20
-14.7826
 10
78.1692
 20
-14.9298
 10
78.1692
 20
-14.9298
 10
77.8163
 20
-14.7826
 10
77.6691
 20
-14.4297
  0
LWPOLYLINE
  5
BD3
330
938
100
AcDbEntity
  8
O
  6
Continuous
 62
     7
100
AcDbPolyline
 90
       12
 70
     0
 43
0.0139
 10
73.4686
 20
-14.4297
 10
73.6158
 20
-14.0768
 10
73.9687
 20
-13.9296
 10
73.9687
 20
-13.9296
 10
74.3216
 20
-14.0768
 10
74.4687
 20
-14.4297
 10
74.4687
 20
-14.4297
 10
74.3216
 20
-14.7826
 10
73.9687
 20
-14.9298
 10
73.9687
 20
-14.9298
 10
73.6158
 20
-14.7826
 10
73.4686
 20
-14.4297
  0
LWPOLYLINE
  5
BE1
330
938
100
AcDbEntity
  8
O
  6
Continuous
 62
     7
100
AcDbPolyline
 90
       12
 70
     0
 43
0.0139
 10
77.6691
 20
-10.2292
 10
77.8163
 20
-9.8763
 10
78.1692
 20
-9.7291
 10
78.1692
 20
-9.7291
 10
78.5221
 20
-9.8763
 10
78.6693
 20
-10.2292
 10
78.6693
 20
-10.2292
 10
78.5221
 20
-10.5821
 10
78.1692
 20
-10.7292
 10
78.1692
 20
-10.7292
 10
77.8163
 20
-10.5821
 10
77.6691
 20
-10.2292
  0
LWPOLYLINE
  5
BEF
330
938
100
AcDbEntity
  8
O
  6
Continuous
 62
     7
100
AcDbPolyline
 90
       12
 70
     0
 43
0.0139
 10
73.4686
 20
-10.2292
 10
73.6158
 20
-9.8763
 10
73.9687
 20
-9.7291
 10
73.9687
 20
-9.7291
 10
74.3216
 20
-9.8763
 10
74.4687
 20
-10.2292
 10
74.4687
 20
-10.2292
 10
74.3216
 20
-10.5821
 10
73.9687
 20
-10.7292
 10
73.9687
 20
-10.7292
 10
73.6158
 20
-10.5821
 10
73.4686
 20
-10.2292
  0
LWPOLYLINE
  5
BFD
330
938
100
AcDbEntity
  8
O
  6
Continuous
 62
     7
100
AcDbPolyline
 90
        2
 70
     0
 43
0.0139
 10
78.1692
 20
-18.7305
 10
78.1692
 20
-17.3317
  0
LWPOLYLINE
  5
C01
330
938
100
AcDbEntity
  8
O
  6
Continuous
 62
     7
100
AcDbPolyline
 90
        2
 70
     0
 43
0.0139
 10
73.9687
 20
-18.7305
 10
78.1692
 20
-18.7305
  0
LWPOLYLINE
  5
C05
330
938
100
AcDbEntity
  8
O
  6
Continuous
 62
     7
100
AcDbPolyline
 90
        2
 70
     0
 43
0.0139
 10
73.9687
 20
-17.3317
 10
73.9687
 20
-18.7305
  0
LWPOLYLINE
  5
C09
330
938
100
AcDbEntity
  8
O
  6
Continuous
 62
     7
100
AcDbPolyline
 90
        2
 70
     0
 43
0.0139
 10
85.8702
 20
-7.3305
 10
85.8702
 20
-12.3311
  0
LWPOLYLINE
  5
C0D
330
938
100
AcDbEntity
  8
O
  6
Continuous
 62
     7
100
AcDbPolyline
 90
        2
 70
     0
 43
0.0139
 10
66.2677
 20
-12.3311
 10
66.2677
 20
-7.3305
  0
LWPOLYLINE
  5
C11
330
938
100
AcDbEntity
  8
O
  6
Continuous
 62
     7
100
AcDbPolyline
 90
        2
 70
     0
 43
0.0139
 10
80.8663
 20
-7.3305
 10
80.8663
 20
-17.3317
  0
LWPOLYLINE
  5
C15
330
938
100
AcDbEntity
  8
O
  6
Continuous
 62
     7
100
AcDbPolyline
 90
        2
 70
     0
 43
0.0139
 10
80.8663
 20
-17.3317
 10
71.2683
 20
-17.3317
  0
LWPOLYLINE
  5
C19
330
938
100
AcDbEntity
  8
O
  6
Continuous
 62
     7
100
AcDbPolyline
 90
        2
 70
     0
 43
0.0139
 10
71.2683
 20
-17.3317
 10
71.2683
 20
-7.3305
  0
LWPOLYLINE
  5
C1D
330
938
100
AcDbEntity
  8
O
  6
Continuous
 62
     7
100
AcDbPolyline
 90
        2
 70
     0
 43
0.0139
 10
85.8702
 20
-12.3311
 10
80.8663
 20
-12.3311
  0
LWPOLYLINE
  5
C21
330
938
100
AcDbEntity
  8
O
  6
Continuous
 62
     7
100
AcDbPolyline
 90
        2
 70
     0
 43
0.0139
 10
71.2683
 20
-12.3311
 10
66.2677
 20
-12.3311
  0
LWPOLYLINE
  5
C25
330
938
100
AcDbEntity
  8
O
  6
Continuous
 62
     7
100
AcDbPolyline
 90
        2
 70
     0
 43
0.0139
 10
85.8702
 20
-7.3305
 10
85.8702
 20
-12.3311
  0
LWPOLYLINE
  5
C29
330
938
100
AcDbEntity
  8
O
  6
Continuous
 62
     7
100
AcDbPolyline
 90
        2
 70
     0
 43
0.0139
 10
66.2677
 20
-12.3311
 10
66.2677
 20
-7.3305
  0
LWPOLYLINE
  5
C2D
330
938
100
AcDbEntity
  8
O
  6
Continuous
 62
     7
100
AcDbPolyline
 90
        2
 70
     0
 43
0.0139
 10
80.8663
 20
-7.3305
 10
80.8663
 20
-17.3317
  0
LWPOLYLINE
  5
C31
330
938
100
AcDbEntity
  8
O
  6
Continuous
 62
     7
100
AcDbPolyline
 90
        2
 70
     0
 43
0.0139
 10
80.8663
 20
-17.3317
 10
71.2683
 20
-17.3317
  0
LWPOLYLINE
  5
C35
330
938
100
AcDbEntity
  8
O
  6
Continuous
 62
     7
100
AcDbPolyline
 90
        2
 70
     0
 43
0.0139
 10
71.2683
 20
-17.3317
 10
71.2683
 20
-7.3305
  0
LWPOLYLINE
  5
C39
330
938
100
AcDbEntity
  8
O
  6
Continuous
 62
     7
100
AcDbPolyline
 90
        2
 70
     0
 43
0.0139
 10
85.8702
 20
-12.3311
 10
80.8663
 20
-12.3311
  0
LWPOLYLINE
  5
C3D
330
938
100
AcDbEntity
  8
O
  6
Continuous
 62
     7
100
AcDbPolyline
 90
        2
 70
     0
 43
0.0139
 10
71.2683
 20
-12.3311
 10
66.2677
 20
-12.3311
  0
LWPOLYLINE
  5
C41
330
938
100
AcDbEntity
  8
O
  6
Continuous
 62
     7
100
AcDbPolyline
 90
        2
 70
     0
 43
0.0139
 10
85.8702
 20
-7.3305
 10
66.2677
 20
-7.3305
  0
LWPOLYLINE
  5
C45
330
938
100
AcDbEntity
  8
O
  6
Continuous
 62
     7
100
AcDbPolyline
 90
        2
 70
     0
 43
0.0139
 10
78.1337
 20
-17.2822
 10
73.9332
 20
-17.2822
  0
LWPOLYLINE
  5
C49
330
938
100
AcDbEntity
  8
O
  6
Continuous
 62
     7
100
AcDbPolyline
 90
        2
 70
     0
 43
0.0139
 10
78.1337
 20
-17.2822
 10
73.9332
 20
-17.2822
  0
INSERT
  5
C4D
330
938
100
AcDbEntity
  8
O
100
AcDbBlockReference
  2
Group9
 10
0.0
 20
0.0
 30
0.0
  0
INSERT
  5
C4E
330
938
100
AcDbEntity
  8
O
100
AcDbBlockReference
  2
Group10
 10
0.0
 20
0.0
 30
0.0
  0
INSERT
  5
C4F
330
938
100
AcDbEntity
  8
O
100
AcDbBlockReference
  2
Group12
 10
0.0
 20
0.0
 30
0.0
  0
LWPOLYLINE
  5
C50
330
938
100
AcDbEntity
  8
O
  6
Continuous
 62
     7
100
AcDbPolyline
 90
        5
 70
     0
 43
0.0139
 10
29.2677
 20
-47.7998
 10
29.2677
 20
-119.7998
 10
179.2677
 20
-119.7998
 10
179.2677
 20
-47.7998
 10
29.2677
 20
-47.7998
  0
INSERT
  5
C57
330
938
100
AcDbEntity
  8
O
100
AcDbBlockReference
  2
Group14
 10
0.0
 20
0.0
 30
0.0
  0
LWPOLYLINE
  5
C58
330
938
100
AcDbEntity
  8
O
  6
Continuous
 62
     7
100
AcDbPolyline
 90
        2
 70
     0
 43
0.0069
 10
115.9441
 20
-47.7998
 10
137.9441
 20
-47.7998
  0
INSERT
  5
C5C
330
938
100
AcDbEntity
  8
O
100
AcDbBlockReference
  2
Group16
 10
0.0
 20
0.0
 30
0.0
  0
INSERT
  5
C5D
330
938
100
AcDbEntity
  8
O
100
AcDbBlockReference
  2
Group17
 10
0.0
 20
0.0
 30
0.0
  0
INSERT
  5
C5E
330
938
100
AcDbEntity
  8
O
100
AcDbBlockReference
  2
Group18
 10
0.0
 20
0.0
 30
0.0
  0
INSERT
  5
C5F
330
938
100
AcDbEntity
  8
O
100
AcDbBlockReference
  2
Group19
 10
0.0
 20
0.0
 30
0.0
  0
INSERT
  5
C60
330
938
100
AcDbEntity
  8
O
100
AcDbBlockReference
  2
Group20
 10
0.0
 20
0.0
 30
0.0
  0
INSERT
  5
C61
330
938
100
AcDbEntity
  8
O
100
AcDbBlockReference
  2
Group21
 10
0.0
 20
0.0
 30
0.0
  0
INSERT
  5
C62
330
938
100
AcDbEntity
  8
O
100
AcDbBlockReference
  2
Group22
 10
0.0
 20
0.0
 30
0.0
  0
LWPOLYLINE
  5
C63
330
938
100
AcDbEntity
  8
O
  6
Continuous
 62
     7
100
AcDbPolyline
 90
        5
 70
     0
 43
0.0139
 10
227.7677
 20
-48.0498
 10
229.2677
 20
-48.0498
 10
229.2677
 20
-120.0498
 10
227.7677
 20
-120.0498
 10
227.7677
 20
-48.0498
  0
INSERT
  5
C6A
330
938
100
AcDbEntity
  8
O
100
AcDbBlockReference
  2
Group23
 10
0.0
 20
0.0
 30
0.0
  0
INSERT
  5
C6B
330
938
100
AcDbEntity
  8
O
100
AcDbBlockReference
  2
Group24
 10
0.0
 20
0.0
 30
0.0
  0
INSERT
  5
C6C
330
938
100
AcDbEntity
  8
O
100
AcDbBlockReference
  2
Group25
 10
0.0
 20
0.0
 30
0.0
  0
INSERT
  5
C6D
330
938
100
AcDbEntity
  8
O
100
AcDbBlockReference
  2
Group26
 10
0.0
 20
0.0
 30
0.0
  0
LWPOLYLINE
  5
C6E
330
938
100
AcDbEntity
  8
O
  6
Continuous
 62
     7
100
AcDbPolyline
 90
        5
 70
     0
 43
0.0139
 10
172.7677
 20
-76.2998
 10
176.5177
 20
-76.2998
 10
176.5177
 20
-78.0498
 10
172.7677
 20
-78.0498
 10
172.7677
 20
-76.2998
  0
LWPOLYLINE
  5
C75
330
938
100
AcDbEntity
  8
O
  6
Continuous
 62
     7
100
AcDbPolyline
 90
        5
 70
     0
 43
0.0139
 10
172.7677
 20
-80.0498
 10
176.5177
 20
-80.0498
 10
176.5177
 20
-81.7998
 10
172.7677
 20
-81.7998
 10
172.7677
 20
-80.0498
  0
LWPOLYLINE
  5
C7C
330
938
100
AcDbEntity
  8
O
  6
Continuous
 62
     7
100
AcDbPolyline
 90
       20
 70
     0
 43
0.0139
 10
108.7677
 20
-52.7998
 10
108.6491
 20
-53.3813
 10
108.3263
 20
-53.8583
 10
107.8492
 20
-54.1811
 10
107.2677
 20
-54.2998
 10
107.2677
 20
-54.2998
 10
106.6862
 20
-54.1811
 10
106.2091
 20
-53.8583
 10
105.8864
 20
-53.3813
 10
105.7677
 20
-52.7998
 10
105.7677
 20
-52.7998
 10
105.8864
 20
-52.2182
 10
106.2091
 20
-51.7412
 10
106.6862
 20
-51.4184
 10
107.2677
 20
-51.2998
 10
107.2677
 20
-51.2998
 10
107.8492
 20
-51.4184
 10
108.3263
 20
-51.7412
 10
108.6491
 20
-52.2182
 10
108.7677
 20
-52.7998
  0
INSERT
  5
C92
330
938
100
AcDbEntity
  8
O
100
AcDbBlockReference
  2
Group27
 10
0.0
 20
0.0
 30
0.0
  0
INSERT
  5
C93
330
938
100
AcDbEntity
  8
O
100
AcDbBlockReference
  2
Group28
 10
0.0
 20
0.0
 30
0.0
  0
LWPOLYLINE
  5
C94
330
938
100
AcDbEntity
  8
O
  6
Continuous
 62
     7
100
AcDbPolyline
 90
        5
 70
     0
 43
0.0139
 10
3.2677
 20
9.2002
 10
253.2677
 20
9.2002
 10
253.2677
 20
-190.7998
 10
3.2677
 20
-190.7998
 10
3.2677
 20
9.2002
  0
ENDBLK
  5
C9B
330
938
100
AcDbEntity
  8
O
100
AcDbBlockEnd
  0
ENDSEC
  0
SECTION
  2
ENTITIES
  0
LWPOLYLINE
  5
CE6
330
1D
100
AcDbEntity
  8
O
  6
Continuous
 62
     7
390
11
100
AcDbPolyline
 90
        2
 70
     0
 43
0.0139
 10
235.2677
 20
-47.7998
 10
236.7677
 20
-47.7998
  0
LWPOLYLINE
  5
CE7
330
1D
100
AcDbEntity
  8
O
  6
Continuous
 62
     7
390
11
100
AcDbPolyline
 90
        2
 70
     0
 43
0.0139
 10
235.2677
 20
-47.7998
 10
235.2677
 20
-121.2998
  0
LWPOLYLINE
  5
CE8
330
1D
100
AcDbEntity
  8
O
  6
Continuous
 62
     7
390
11
100
AcDbPolyline
 90
        2
 70
     0
 43
0.0139
 10
236.7677
 20
-47.7998
 10
236.7677
 20
-121.2998
  0
LWPOLYLINE
  5
CE9
330
1D
100
AcDbEntity
  8
O
  6
Continuous
 62
     7
390
11
100
AcDbPolyline
 90
        5
 70
     0
 43
0.0139
 10
236.7677
 20
-121.2998
 10
236.649
 20
-121.8813
 10
236.3263
 20
-122.3583
 10
235.8492
 20
-122.6811
 10
235.2677
 20
-122.7998
  0
LWPOLYLINE
  5
CEA
330
1D
100
AcDbEntity
  8
O
  6
Continuous
 62
     7
390
11
100
AcDbPolyline
 90
        5
 70
     0
 43
0.0139
 10
229.2677
 20
-111.7998
 10
235.2677
 20
-111.7998
 10
235.2677
 20
-117.7998
 10
229.2677
 20
-117.7998
 10
229.2677
 20
-111.7998
  0
LWPOLYLINE
  5
CEB
330
1D
100
AcDbEntity
  8
O
  6
Continuous
 62
     7
390
11
100
AcDbPolyline
 90
        2
 70
     0
 43
0.0139
 10
235.2677
 20
-121.2998
 10
207.7677
 20
-121.2998
  0
LWPOLYLINE
  5
CEC
330
1D
100
AcDbEntity
  8
O
  6
Continuous
 62
     7
390
11
100
AcDbPolyline
 90
        2
 70
     0
 43
0.0139
 10
235.2677
 20
-122.7998
 10
207.7677
 20
-122.7998
  0
LWPOLYLINE
  5
CED
330
1D
100
AcDbEntity
  8
O
  6
Continuous
 62
     7
390
11
100
AcDbPolyline
 90
        2
 70
     0
 43
0.0139
 10
207.7677
 20
-121.2998
 10
207.7677
 20
-122.7998
  0
LWPOLYLINE
  5
CEE
330
1D
100
AcDbEntity
  8
O
  6
Continuous
 62
     7
390
11
100
AcDbPolyline
 90
        5
 70
     0
 43
0.0139
 10
229.2677
 20
-49.7998
 10
235.2677
 20
-49.7998
 10
235.2677
 20
-55.7998
 10
229.2677
 20
-55.7998
 10
229.2677
 20
-49.7998
  0
LWPOLYLINE
  5
CEF
330
1D
100
AcDbEntity
  8
O
  6
Continuous
 62
     7
390
11
100
AcDbPolyline
 90
        5
 70
     0
 43
0.0139
 10
17.2677
 20
0.2002
 10
191.2677
 20
0.2002
 10
191.2677
 20
-1.2998
 10
17.2677
 20
-1.2998
 10
17.2677
 20
0.2002
  0
LWPOLYLINE
  5
CF0
330
1D
100
AcDbEntity
  8
O
  6
Continuous
 62
     7
390
11
100
AcDbPolyline
 90
        2
 70
     0
 43
0.0139
 10
17.2677
 20
-1.2998
 10
17.2677
 20
-12.2998
  0
LWPOLYLINE
  5
CF1
330
1D
100
AcDbEntity
  8
O
  6
Continuous
 62
     7
390
11
100
AcDbPolyline
 90
        5
 70
     0
 43
0.0139
 10
31.2677
 20
-1.2998
 10
37.2677
 20
-1.2998
 10
37.2677
 20
-5.7998
 10
31.2677
 20
-5.7998
 10
31.2677
 20
-1.2998
  0
LWPOLYLINE
  5
CF2
330
1D
100
AcDbEntity
  8
O
  6
Continuous
 62
     7
390
11
100
AcDbPolyline
 90
        2
 70
     0
 43
0.0139
 10
189.2677
 20
-28.7998
 10
19.2677
 20
-28.7998
  0
LWPOLYLINE
  5
CF3
330
1D
100
AcDbEntity
  8
O
  6
Continuous
 62
     7
390
11
100
AcDbPolyline
 90
        5
 70
     0
 43
0.0139
 10
19.2677
 20
-28.7998
 10
18.4924
 20
-28.6415
 10
17.8563
 20
-28.2112
 10
17.4259
 20
-27.5751
 10
17.2677
 20
-26.7998
  0
LWPOLYLINE
  5
CF4
330
1D
100
AcDbEntity
  8
O
  6
Continuous
 62
     7
390
11
100
AcDbPolyline
 90
        2
 70
     0
 43
0.0139
 10
17.2677
 20
-26.7998
 10
17.2677
 20
-17.2998
  0
LWPOLYLINE
  5
CF5
330
1D
100
AcDbEntity
  8
O
  6
Continuous
 62
     7
390
11
100
AcDbPolyline
 90
       10
 70
     0
 43
0.0139
 10
23.2677
 20
-12.2998
 10
24.2369
 20
-12.4975
 10
25.032
 20
-13.0355
 10
25.5699
 20
-13.8306
 10
25.7677
 20
-14.7998
 10
25.7677
 20
-14.7998
 10
25.5699
 20
-15.7689
 10
25.032
 20
-16.564
 10
24.2369
 20
-17.102
 10
23.2677
 20
-17.2998
  0
LWPOLYLINE
  5
CF6
330
1D
100
AcDbEntity
  8
O
  6
Continuous
 62
     7
390
11
100
AcDbPolyline
 90
        2
 70
     0
 43
0.0139
 10
17.2677
 20
-12.2998
 10
23.2677
 20
-12.2998
  0
LWPOLYLINE
  5
CF7
330
1D
100
AcDbEntity
  8
O
  6
Continuous
 62
     7
390
11
100
AcDbPolyline
 90
        2
 70
     0
 43
0.0139
 10
17.2677
 20
-17.2998
 10
23.2677
 20
-17.2998
  0
LWPOLYLINE
  5
CF8
330
1D
100
AcDbEntity
  8
O
  6
Continuous
 62
     7
390
11
100
AcDbPolyline
 90
        5
 70
     0
 43
0.0139
 10
171.2677
 20
-1.2998
 10
177.2677
 20
-1.2998
 10
177.2677
 20
-5.7998
 10
171.2677
 20
-5.7998
 10
171.2677
 20
-1.2998
  0
LWPOLYLINE
  5
CF9
330
1D
100
AcDbEntity
  8
O
  6
Continuous
 62
     7
390
11
100
AcDbPolyline
 90
        2
 70
     0
 43
0.0139
 10
189.2677
 20
-47.7998
 10
19.2677
 20
-47.7998
  0
LWPOLYLINE
  5
CFA
330
1D
100
AcDbEntity
  8
O
  6
Continuous
 62
     7
390
11
100
AcDbPolyline
 90
        5
 70
     0
 43
0.0139
 10
17.2677
 20
-49.7998
 10
17.4259
 20
-49.0244
 10
17.8563
 20
-48.3884
 10
18.4924
 20
-47.958
 10
19.2677
 20
-47.7998
  0
LWPOLYLINE
  5
CFB
330
1D
100
AcDbEntity
  8
O
  6
Continuous
 62
     7
390
11
100
AcDbPolyline
 90
        2
 70
     0
 43
0.0139
 10
17.2677
 20
-65.2998
 10
17.2677
 20
-102.2998
  0
LWPOLYLINE
  5
CFC
330
1D
100
AcDbEntity
  8
O
  6
Continuous
 62
     7
390
11
100
AcDbPolyline
 90
       10
 70
     0
 43
0.0139
 10
23.2677
 20
-60.2998
 10
24.2369
 20
-60.4975
 10
25.032
 20
-61.0355
 10
25.5699
 20
-61.8306
 10
25.7677
 20
-62.7998
 10
25.7677
 20
-62.7998
 10
25.5699
 20
-63.7689
 10
25.032
 20
-64.564
 10
24.2369
 20
-65.102
 10
23.2677
 20
-65.2998
  0
LWPOLYLINE
  5
CFD
330
1D
100
AcDbEntity
  8
O
  6
Continuous
 62
     7
390
11
100
AcDbPolyline
 90
        2
 70
     0
 43
0.0139
 10
17.2677
 20
-60.2998
 10
23.2677
 20
-60.2998
  0
LWPOLYLINE
  5
CFE
330
1D
100
AcDbEntity
  8
O
  6
Continuous
 62
     7
390
11
100
AcDbPolyline
 90
        2
 70
     0
 43
0.0139
 10
17.2677
 20
-65.2998
 10
23.2677
 20
-65.2998
  0
LWPOLYLINE
  5
CFF
330
1D
100
AcDbEntity
  8
O
  6
Continuous
 62
     7
390
11
100
AcDbPolyline
 90
       10
 70
     0
 43
0.0139
 10
23.2677
 20
-107.2998
 10
24.2369
 20
-107.102
 10
25.032
 20
-106.564
 10
25.5699
 20
-105.7689
 10
25.7677
 20
-104.7998
 10
25.7677
 20
-104.7998
 10
25.5699
 20
-103.8306
 10
25.032
 20
-103.0355
 10
24.2369
 20
-102.4975
 10
23.2677
 20
-102.2998
  0
LWPOLYLINE
  5
D00
330
1D
100
AcDbEntity
  8
O
  6
Continuous
 62
     7
390
11
100
AcDbPolyline
 90
        2
 70
     0
 43
0.0139
 10
17.2677
 20
-107.2998
 10
23.2677
 20
-107.2998
  0
LWPOLYLINE
  5
D01
330
1D
100
AcDbEntity
  8
O
  6
Continuous
 62
     7
390
11
100
AcDbPolyline
 90
        2
 70
     0
 43
0.0139
 10
17.2677
 20
-102.2998
 10
23.2677
 20
-102.2998
  0
LWPOLYLINE
  5
D02
330
1D
100
AcDbEntity
  8
O
  6
Continuous
 62
     7
390
11
100
AcDbPolyline
 90
        2
 70
     0
 43
0.0139
 10
17.2677
 20
-121.2998
 10
17.2677
 20
-107.2998
  0
LWPOLYLINE
  5
D03
330
1D
100
AcDbEntity
  8
O
  6
Continuous
 62
     7
390
11
100
AcDbPolyline
 90
        2
 70
     0
 43
0.0139
 10
17.2677
 20
-60.2998
 10
17.2677
 20
-49.7998
  0
LWPOLYLINE
  5
D04
330
1D
100
AcDbEntity
  8
O
  6
Continuous
 62
     7
390
11
100
AcDbPolyline
 90
        5
 70
     0
 43
0.0139
 10
17.2677
 20
-121.2998
 10
191.2677
 20
-121.2998
 10
191.2677
 20
-122.7998
 10
17.2677
 20
-122.7998
 10
17.2677
 20
-121.2998
  0
LWPOLYLINE
  5
D05
330
1D
100
AcDbEntity
  8
O
  6
Continuous
 62
     7
390
11
100
AcDbPolyline
 90
        5
 70
     0
 43
0.0139
 10
191.2677
 20
-49.7998
 10
191.1095
 20
-49.0244
 10
190.6791
 20
-48.3884
 10
190.043
 20
-47.958
 10
189.2677
 20
-47.7998
  0
LWPOLYLINE
  5
D06
330
1D
100
AcDbEntity
  8
O
  6
Continuous
 62
     7
390
11
100
AcDbPolyline
 90
        2
 70
     0
 43
0.0139
 10
191.2677
 20
-65.2998
 10
191.2677
 20
-102.2998
  0
LWPOLYLINE
  5
D07
330
1D
100
AcDbEntity
  8
O
  6
Continuous
 62
     7
390
11
100
AcDbPolyline
 90
       10
 70
     0
 43
0.0139
 10
185.2677
 20
-60.2998
 10
184.2986
 20
-60.4975
 10
183.5035
 20
-61.0355
 10
182.9655
 20
-61.8306
 10
182.7677
 20
-62.7998
 10
182.7677
 20
-62.7998
 10
182.9655
 20
-63.7689
 10
183.5035
 20
-64.564
 10
184.2986
 20
-65.102
 10
185.2677
 20
-65.2998
  0
LWPOLYLINE
  5
D08
330
1D
100
AcDbEntity
  8
O
  6
Continuous
 62
     7
390
11
100
AcDbPolyline
 90
        2
 70
     0
 43
0.0139
 10
191.2677
 20
-60.2998
 10
185.2677
 20
-60.2998
  0
LWPOLYLINE
  5
D09
330
1D
100
AcDbEntity
  8
O
  6
Continuous
 62
     7
390
11
100
AcDbPolyline
 90
        2
 70
     0
 43
0.0139
 10
191.2677
 20
-65.2998
 10
185.2677
 20
-65.2998
  0
LWPOLYLINE
  5
D0A
330
1D
100
AcDbEntity
  8
O
  6
Continuous
 62
     7
390
11
100
AcDbPolyline
 90
       10
 70
     0
 43
0.0139
 10
185.2677
 20
-107.2998
 10
184.2986
 20
-107.102
 10
183.5035
 20
-106.564
 10
182.9655
 20
-105.7689
 10
182.7677
 20
-104.7998
 10
182.7677
 20
-104.7998
 10
182.9655
 20
-103.8306
 10
183.5035
 20
-103.0355
 10
184.2986
 20
-102.4975
 10
185.2677
 20
-102.2998
  0
LWPOLYLINE
  5
D0B
330
1D
100
AcDbEntity
  8
O
  6
Continuous
 62
     7
390
11
100
AcDbPolyline
 90
        2
 70
     0
 43
0.0139
 10
191.2677
 20
-107.2998
 10
185.2677
 20
-107.2998
  0
LWPOLYLINE
  5
D0C
330
1D
100
AcDbEntity
  8
O
  6
Continuous
 62
     7
390
11
100
AcDbPolyline
 90
        2
 70
     0
 43
0.0139
 10
191.2677
 20
-102.2998
 10
185.2677
 20
-102.2998
  0
LWPOLYLINE
  5
D0D
330
1D
100
AcDbEntity
  8
O
  6
Continuous
 62
     7
390
11
100
AcDbPolyline
 90
        2
 70
     0
 43
0.0139
 10
191.2677
 20
-121.2998
 10
191.2677
 20
-107.2998
  0
LWPOLYLINE
  5
D0E
330
1D
100
AcDbEntity
  8
O
  6
Continuous
 62
     7
390
11
100
AcDbPolyline
 90
        2
 70
     0
 43
0.0139
 10
191.2677
 20
-60.2998
 10
191.2677
 20
-49.7998
  0
LWPOLYLINE
  5
D0F
330
1D
100
AcDbEntity
  8
O
  6
Continuous
 62
     7
390
11
100
AcDbPolyline
 90
       20
 70
     0
 43
0.0139
 10
37.2677
 20
-52.7998
 10
37.0304
 20
-53.9628
 10
36.3849
 20
-54.9169
 10
35.4308
 20
-55.5624
 10
34.2677
 20
-55.7998
 10
34.2677
 20
-55.7998
 10
33.1047
 20
-55.5624
 10
32.1506
 20
-54.9169
 10
31.505
 20
-53.9628
 10
31.2677
 20
-52.7998
 10
31.2677
 20
-52.7998
 10
31.505
 20
-51.6367
 10
32.1506
 20
-50.6826
 10
33.1047
 20
-50.0371
 10
34.2677
 20
-49.7998
 10
34.2677
 20
-49.7998
 10
35.4308
 20
-50.0371
 10
36.3849
 20
-50.6826
 10
37.0304
 20
-51.6367
 10
37.2677
 20
-52.7998
  0
LWPOLYLINE
  5
D10
330
1D
100
AcDbEntity
  8
O
  6
Continuous
 62
     7
390
11
100
AcDbPolyline
 90
       20
 70
     0
 43
0.0139
 10
37.2677
 20
-114.7998
 10
37.0304
 20
-115.9628
 10
36.3849
 20
-116.9169
 10
35.4308
 20
-117.5624
 10
34.2677
 20
-117.7998
 10
34.2677
 20
-117.7998
 10
33.1047
 20
-117.5624
 10
32.1506
 20
-116.9169
 10
31.505
 20
-115.9628
 10
31.2677
 20
-114.7998
 10
31.2677
 20
-114.7998
 10
31.505
 20
-113.6367
 10
32.1506
 20
-112.6826
 10
33.1047
 20
-112.0371
 10
34.2677
 20
-111.7998
 10
34.2677
 20
-111.7998
 10
35.4308
 20
-112.0371
 10
36.3849
 20
-112.6826
 10
37.0304
 20
-113.6367
 10
37.2677
 20
-114.7998
  0
LWPOLYLINE
  5
D11
330
1D
100
AcDbEntity
  8
O
  6
Continuous
 62
     7
390
11
100
AcDbPolyline
 90
       20
 70
     0
 43
0.0139
 10
177.2677
 20
-114.7998
 10
177.0304
 20
-115.9628
 10
176.3849
 20
-116.9169
 10
175.4308
 20
-117.5624
 10
174.2677
 20
-117.7998
 10
174.2677
 20
-117.7998
 10
173.1047
 20
-117.5624
 10
172.1506
 20
-116.9169
 10
171.505
 20
-115.9628
 10
171.2677
 20
-114.7998
 10
171.2677
 20
-114.7998
 10
171.505
 20
-113.6367
 10
172.1506
 20
-112.6826
 10
173.1047
 20
-112.0371
 10
174.2677
 20
-111.7998
 10
174.2677
 20
-111.7998
 10
175.4308
 20
-112.0371
 10
176.3849
 20
-112.6826
 10
177.0304
 20
-113.6367
 10
177.2677
 20
-114.7998
  0
LWPOLYLINE
  5
D12
330
1D
100
AcDbEntity
  8
O
  6
Continuous
 62
     7
390
11
100
AcDbPolyline
 90
       20
 70
     0
 43
0.0139
 10
177.2677
 20
-52.7998
 10
177.0304
 20
-53.9628
 10
176.3849
 20
-54.9169
 10
175.4308
 20
-55.5624
 10
174.2677
 20
-55.7998
 10
174.2677
 20
-55.7998
 10
173.1047
 20
-55.5624
 10
172.1506
 20
-54.9169
 10
171.505
 20
-53.9628
 10
171.2677
 20
-52.7998
 10
171.2677
 20
-52.7998
 10
171.505
 20
-51.6367
 10
172.1506
 20
-50.6826
 10
173.1047
 20
-50.0371
 10
174.2677
 20
-49.7998
 10
174.2677
 20
-49.7998
 10
175.4308
 20
-50.0371
 10
176.3849
 20
-50.6826
 10
177.0304
 20
-51.6367
 10
177.2677
 20
-52.7998
  0
LWPOLYLINE
  5
D13
330
1D
100
AcDbEntity
  8
O
  6
Continuous
 62
     7
390
11
100
AcDbPolyline
 90
        2
 70
     0
 43
0.0139
 10
191.2677
 20
-1.2998
 10
191.2677
 20
-12.2998
  0
LWPOLYLINE
  5
D14
330
1D
100
AcDbEntity
  8
O
  6
Continuous
 62
     7
390
11
100
AcDbPolyline
 90
        5
 70
     0
 43
0.0139
 10
189.2677
 20
-28.7998
 10
190.043
 20
-28.6415
 10
190.6791
 20
-28.2112
 10
191.1095
 20
-27.5751
 10
191.2677
 20
-26.7998
  0
LWPOLYLINE
  5
D15
330
1D
100
AcDbEntity
  8
O
  6
Continuous
 62
     7
390
11
100
AcDbPolyline
 90
        2
 70
     0
 43
0.0139
 10
191.2677
 20
-26.7998
 10
191.2677
 20
-17.2998
  0
LWPOLYLINE
  5
D16
330
1D
100
AcDbEntity
  8
O
  6
Continuous
 62
     7
390
11
100
AcDbPolyline
 90
       10
 70
     0
 43
0.0139
 10
185.2677
 20
-12.2998
 10
184.2986
 20
-12.4975
 10
183.5035
 20
-13.0355
 10
182.9655
 20
-13.8306
 10
182.7677
 20
-14.7998
 10
182.7677
 20
-14.7998
 10
182.9655
 20
-15.7689
 10
183.5035
 20
-16.564
 10
184.2986
 20
-17.102
 10
185.2677
 20
-17.2998
  0
LWPOLYLINE
  5
D17
330
1D
100
AcDbEntity
  8
O
  6
Continuous
 62
     7
390
11
100
AcDbPolyline
 90
        2
 70
     0
 43
0.0139
 10
191.2677
 20
-12.2998
 10
185.2677
 20
-12.2998
  0
LWPOLYLINE
  5
D18
330
1D
100
AcDbEntity
  8
O
  6
Continuous
 62
     7
390
11
100
AcDbPolyline
 90
        2
 70
     0
 43
0.0139
 10
191.2677
 20
-17.2998
 10
185.2677
 20
-17.2998
  0
LWPOLYLINE
  5
D19
330
1D
100
AcDbEntity
  8
O
  6
Continuous
 62
     7
390
11
100
AcDbPolyline
 90
       13
 70
     0
 43
0.0139
 10
33.7677
 20
-51.2998
 10
34.7677
 20
-51.2998
 10
34.7677
 20
-52.2998
 10
35.7677
 20
-52.2998
 10
35.7677
 20
-53.2998
 10
34.7677
 20
-53.2998
 10
34.7677
 20
-54.2998
 10
33.7677
 20
-54.2998
 10
33.7677
 20
-53.2998
 10
32.7677
 20
-53.2998
 10
32.7677
 20
-52.2998
 10
33.7677
 20
-52.2998
 10
33.7677
 20
-51.2998
  0
LWPOLYLINE
  5
D1A
330
1D
100
AcDbEntity
  8
O
  6
Continuous
 62
     7
390
11
100
AcDbPolyline
 90
       13
 70
     0
 43
0.0139
 10
33.7677
 20
-113.2998
 10
34.7677
 20
-113.2998
 10
34.7677
 20
-114.2998
 10
35.7677
 20
-114.2998
 10
35.7677
 20
-115.2998
 10
34.7677
 20
-115.2998
 10
34.7677
 20
-116.2998
 10
33.7677
 20
-116.2998
 10
33.7677
 20
-115.2998
 10
32.7677
 20
-115.2998
 10
32.7677
 20
-114.2998
 10
33.7677
 20
-114.2998
 10
33.7677
 20
-113.2998
  0
LWPOLYLINE
  5
D1B
330
1D
100
AcDbEntity
  8
O
  6
Continuous
 62
     7
390
11
100
AcDbPolyline
 90
       13
 70
     0
 43
0.0139
 10
173.7677
 20
-113.2998
 10
174.7677
 20
-113.2998
 10
174.7677
 20
-114.2998
 10
175.7677
 20
-114.2998
 10
175.7677
 20
-115.2998
 10
174.7677
 20
-115.2998
 10
174.7677
 20
-116.2998
 10
173.7677
 20
-116.2998
 10
173.7677
 20
-115.2998
 10
172.7677
 20
-115.2998
 10
172.7677
 20
-114.2998
 10
173.7677
 20
-114.2998
 10
173.7677
 20
-113.2998
  0
LWPOLYLINE
  5
D1C
330
1D
100
AcDbEntity
  8
O
  6
Continuous
 62
     7
390
11
100
AcDbPolyline
 90
       13
 70
     0
 43
0.0139
 10
173.7677
 20
-51.2998
 10
174.7677
 20
-51.2998
 10
174.7677
 20
-52.2998
 10
175.7677
 20
-52.2998
 10
175.7677
 20
-53.2998
 10
174.7677
 20
-53.2998
 10
174.7677
 20
-54.2998
 10
173.7677
 20
-54.2998
 10
173.7677
 20
-53.2998
 10
172.7677
 20
-53.2998
 10
172.7677
 20
-52.2998
 10
173.7677
 20
-52.2998
 10
173.7677
 20
-51.2998
  0
LWPOLYLINE
  5
D1D
330
1D
100
AcDbEntity
  8
O
  6
Continuous
 62
     7
390
11
100
AcDbPolyline
 90
        5
 70
     0
 43
0.0139
 10
29.2677
 20
-5.7998
 10
179.2677
 20
-5.7998
 10
179.2677
 20
-7.2998
 10
29.2677
 20
-7.2998
 10
29.2677
 20
-5.7998
  0
INSERT
  5
D1E
330
1D
100
AcDbEntity
  8
O
 62
     0
390
11
100
AcDbBlockReference
  2
Group5
 10
0.0
 20
0.0
 30
0.0
  0
LWPOLYLINE
  5
D22
330
1D
100
AcDbEntity
  8
O
  6
Continuous
 62
     7
390
11
100
AcDbPolyline
 90
        2
 70
     0
 43
0.0139
 10
76.169
 20
-16.4299
 10
80.1695
 20
-16.4299
  0
LWPOLYLINE
  5
D23
330
1D
100
AcDbEntity
  8
O
  6
Continuous
 62
     7
390
11
100
AcDbPolyline
 90
        2
 70
     0
 43
0.0139
 10
76.169
 20
-12.4294
 10
76.169
 20
-16.4299
  0
LWPOLYLINE
  5
D24
330
1D
100
AcDbEntity
  8
O
  6
Continuous
 62
     7
390
11
100
AcDbPolyline
 90
        2
 70
     0
 43
0.0139
 10
80.1695
 20
-12.4294
 10
76.169
 20
-12.4294
  0
LWPOLYLINE
  5
D25
330
1D
100
AcDbEntity
  8
O
  6
Continuous
 62
     7
390
11
100
AcDbPolyline
 90
        2
 70
     0
 43
0.0139
 10
80.1695
 20
-16.4299
 10
80.1695
 20
-12.4294
  0
LWPOLYLINE
  5
D26
330
1D
100
AcDbEntity
  8
O
  6
Continuous
 62
     7
390
11
100
AcDbPolyline
 90
        2
 70
     0
 43
0.0139
 10
71.9684
 20
-12.2294
 10
75.9689
 20
-12.2294
  0
LWPOLYLINE
  5
D27
330
1D
100
AcDbEntity
  8
O
  6
Continuous
 62
     7
390
11
100
AcDbPolyline
 90
        2
 70
     0
 43
0.0139
 10
71.9684
 20
-8.2289
 10
71.9684
 20
-12.2294
  0
LWPOLYLINE
  5
D28
330
1D
100
AcDbEntity
  8
O
  6
Continuous
 62
     7
390
11
100
AcDbPolyline
 90
        2
 70
     0
 43
0.0139
 10
75.9689
 20
-8.2289
 10
71.9684
 20
-8.2289
  0
LWPOLYLINE
  5
D29
330
1D
100
AcDbEntity
  8
O
  6
Continuous
 62
     7
390
11
100
AcDbPolyline
 90
        2
 70
     0
 43
0.0139
 10
75.9689
 20
-12.2294
 10
75.9689
 20
-8.2289
  0
LWPOLYLINE
  5
D2A
330
1D
100
AcDbEntity
  8
O
  6
Continuous
 62
     7
390
11
100
AcDbPolyline
 90
        2
 70
     0
 43
0.0139
 10
77.1691
 20
-8.2289
 10
76.169
 20
-9.229
  0
LWPOLYLINE
  5
D2B
330
1D
100
AcDbEntity
  8
O
  6
Continuous
 62
     7
390
11
100
AcDbPolyline
 90
        2
 70
     0
 43
0.0139
 10
76.169
 20
-12.2294
 10
76.169
 20
-9.229
  0
LWPOLYLINE
  5
D2C
330
1D
100
AcDbEntity
  8
O
  6
Continuous
 62
     7
390
11
100
AcDbPolyline
 90
        2
 70
     0
 43
0.0139
 10
79.1693
 20
-8.2289
 10
77.1691
 20
-8.2289
  0
LWPOLYLINE
  5
D2D
330
1D
100
AcDbEntity
  8
O
  6
Continuous
 62
     7
390
11
100
AcDbPolyline
 90
        2
 70
     0
 43
0.0139
 10
80.1695
 20
-9.229
 10
79.1693
 20
-8.2289
  0
LWPOLYLINE
  5
D2E
330
1D
100
AcDbEntity
  8
O
  6
Continuous
 62
     7
390
11
100
AcDbPolyline
 90
        2
 70
     0
 43
0.0139
 10
80.1695
 20
-12.2294
 10
80.1695
 20
-9.229
  0
LWPOLYLINE
  5
D2F
330
1D
100
AcDbEntity
  8
O
  6
Continuous
 62
     7
390
11
100
AcDbPolyline
 90
        2
 70
     0
 43
0.0139
 10
80.1695
 20
-12.2294
 10
76.169
 20
-12.2294
  0
LWPOLYLINE
  5
D30
330
1D
100
AcDbEntity
  8
O
  6
Continuous
 62
     7
390
11
100
AcDbPolyline
 90
        2
 70
     0
 43
0.0139
 10
72.9686
 20
-12.4294
 10
71.9684
 20
-13.4296
  0
LWPOLYLINE
  5
D31
330
1D
100
AcDbEntity
  8
O
  6
Continuous
 62
     7
390
11
100
AcDbPolyline
 90
        2
 70
     0
 43
0.0139
 10
71.9684
 20
-16.4299
 10
71.9684
 20
-13.4296
  0
LWPOLYLINE
  5
D32
330
1D
100
AcDbEntity
  8
O
  6
Continuous
 62
     7
390
11
100
AcDbPolyline
 90
        2
 70
     0
 43
0.0139
 10
74.9688
 20
-12.4294
 10
72.9686
 20
-12.4294
  0
LWPOLYLINE
  5
D33
330
1D
100
AcDbEntity
  8
O
  6
Continuous
 62
     7
390
11
100
AcDbPolyline
 90
        2
 70
     0
 43
0.0139
 10
75.9689
 20
-13.4296
 10
74.9688
 20
-12.4294
  0
LWPOLYLINE
  5
D34
330
1D
100
AcDbEntity
  8
O
  6
Continuous
 62
     7
390
11
100
AcDbPolyline
 90
        2
 70
     0
 43
0.0139
 10
75.9689
 20
-16.4299
 10
75.9689
 20
-13.4296
  0
LWPOLYLINE
  5
D35
330
1D
100
AcDbEntity
  8
O
  6
Continuous
 62
     7
390
11
100
AcDbPolyline
 90
        2
 70
     0
 43
0.0139
 10
75.9689
 20
-16.4299
 10
71.9684
 20
-16.4299
  0
LWPOLYLINE
  5
D36
330
1D
100
AcDbEntity
  8
O
  6
Continuous
 62
     7
390
11
100
AcDbPolyline
 90
        2
 70
     0
 43
0.0139
 10
77.6691
 20
-17.3317
 10
74.4687
 20
-17.3317
  0
LWPOLYLINE
  5
D37
330
1D
100
AcDbEntity
  8
O
  6
Continuous
 62
     7
390
11
100
AcDbPolyline
 90
        2
 70
     0
 43
0.0139
 10
76.169
 20
-16.4299
 10
80.1695
 20
-16.4299
  0
LWPOLYLINE
  5
D38
330
1D
100
AcDbEntity
  8
O
  6
Continuous
 62
     7
390
11
100
AcDbPolyline
 90
        2
 70
     0
 43
0.0139
 10
76.169
 20
-12.4294
 10
76.169
 20
-16.4299
  0
LWPOLYLINE
  5
D39
330
1D
100
AcDbEntity
  8
O
  6
Continuous
 62
     7
390
11
100
AcDbPolyline
 90
        2
 70
     0
 43
0.0139
 10
80.1695
 20
-12.4294
 10
76.169
 20
-12.4294
  0
LWPOLYLINE
  5
D3A
330
1D
100
AcDbEntity
  8
O
  6
Continuous
 62
     7
390
11
100
AcDbPolyline
 90
        2
 70
     0
 43
0.0139
 10
80.1695
 20
-16.4299
 10
80.1695
 20
-12.4294
  0
LWPOLYLINE
  5
D3B
330
1D
100
AcDbEntity
  8
O
  6
Continuous
 62
     7
390
11
100
AcDbPolyline
 90
        2
 70
     0
 43
0.0139
 10
71.9684
 20
-12.2294
 10
75.9689
 20
-12.2294
  0
LWPOLYLINE
  5
D3C
330
1D
100
AcDbEntity
  8
O
  6
Continuous
 62
     7
390
11
100
AcDbPolyline
 90
        2
 70
     0
 43
0.0139
 10
71.9684
 20
-8.2289
 10
71.9684
 20
-12.2294
  0
LWPOLYLINE
  5
D3D
330
1D
100
AcDbEntity
  8
O
  6
Continuous
 62
     7
390
11
100
AcDbPolyline
 90
        2
 70
     0
 43
0.0139
 10
75.9689
 20
-8.2289
 10
71.9684
 20
-8.2289
  0
LWPOLYLINE
  5
D3E
330
1D
100
AcDbEntity
  8
O
  6
Continuous
 62
     7
390
11
100
AcDbPolyline
 90
        2
 70
     0
 43
0.0139
 10
75.9689
 20
-12.2294
 10
75.9689
 20
-8.2289
  0
LWPOLYLINE
  5
D3F
330
1D
100
AcDbEntity
  8
O
  6
Continuous
 62
     7
390
11
100
AcDbPolyline
 90
        2
 70
     0
 43
0.0139
 10
77.1691
 20
-8.2289
 10
76.169
 20
-9.229
  0
LWPOLYLINE
  5
D40
330
1D
100
AcDbEntity
  8
O
  6
Continuous
 62
     7
390
11
100
AcDbPolyline
 90
        2
 70
     0
 43
0.0139
 10
76.169
 20
-12.2294
 10
76.169
 20
-9.229
  0
LWPOLYLINE
  5
D41
330
1D
100
AcDbEntity
  8
O
  6
Continuous
 62
     7
390
11
100
AcDbPolyline
 90
        2
 70
     0
 43
0.0139
 10
79.1693
 20
-8.2289
 10
77.1691
 20
-8.2289
  0
LWPOLYLINE
  5
D42
330
1D
100
AcDbEntity
  8
O
  6
Continuous
 62
     7
390
11
100
AcDbPolyline
 90
        2
 70
     0
 43
0.0139
 10
80.1695
 20
-9.229
 10
79.1693
 20
-8.2289
  0
LWPOLYLINE
  5
D43
330
1D
100
AcDbEntity
  8
O
  6
Continuous
 62
     7
390
11
100
AcDbPolyline
 90
        2
 70
     0
 43
0.0139
 10
80.1695
 20
-12.2294
 10
80.1695
 20
-9.229
  0
LWPOLYLINE
  5
D44
330
1D
100
AcDbEntity
  8
O
  6
Continuous
 62
     7
390
11
100
AcDbPolyline
 90
        2
 70
     0
 43
0.0139
 10
80.1695
 20
-12.2294
 10
76.169
 20
-12.2294
  0
LWPOLYLINE
  5
D45
330
1D
100
AcDbEntity
  8
O
  6
Continuous
 62
     7
390
11
100
AcDbPolyline
 90
        2
 70
     0
 43
0.0139
 10
72.9686
 20
-12.4294
 10
71.9684
 20
-13.4296
  0
LWPOLYLINE
  5
D46
330
1D
100
AcDbEntity
  8
O
  6
Continuous
 62
     7
390
11
100
AcDbPolyline
 90
        2
 70
     0
 43
0.0139
 10
71.9684
 20
-16.4299
 10
71.9684
 20
-13.4296
  0
LWPOLYLINE
  5
D47
330
1D
100
AcDbEntity
  8
O
  6
Continuous
 62
     7
390
11
100
AcDbPolyline
 90
        2
 70
     0
 43
0.0139
 10
74.9688
 20
-12.4294
 10
72.9686
 20
-12.4294
  0
LWPOLYLINE
  5
D48
330
1D
100
AcDbEntity
  8
O
  6
Continuous
 62
     7
390
11
100
AcDbPolyline
 90
        2
 70
     0
 43
0.0139
 10
75.9689
 20
-13.4296
 10
74.9688
 20
-12.4294
  0
LWPOLYLINE
  5
D49
330
1D
100
AcDbEntity
  8
O
  6
Continuous
 62
     7
390
11
100
AcDbPolyline
 90
        2
 70
     0
 43
0.0139
 10
75.9689
 20
-16.4299
 10
75.9689
 20
-13.4296
  0
LWPOLYLINE
  5
D4A
330
1D
100
AcDbEntity
  8
O
  6
Continuous
 62
     7
390
11
100
AcDbPolyline
 90
        2
 70
     0
 43
0.0139
 10
75.9689
 20
-16.4299
 10
71.9684
 20
-16.4299
  0
LWPOLYLINE
  5
D4B
330
1D
100
AcDbEntity
  8
O
  6
Continuous
 62
     7
390
11
100
AcDbPolyline
 90
        2
 70
     0
 43
0.0139
 10
77.6691
 20
-17.3317
 10
74.4687
 20
-17.3317
  0
LWPOLYLINE
  5
D4C
330
1D
100
AcDbEntity
  8
O
  6
Continuous
 62
     7
390
11
100
AcDbPolyline
 90
       12
 70
     0
 43
0.0139
 10
77.6691
 20
-14.4297
 10
77.8163
 20
-14.0768
 10
78.1692
 20
-13.9296
 10
78.1692
 20
-13.9296
 10
78.5221
 20
-14.0768
 10
78.6693
 20
-14.4297
 10
78.6693
 20
-14.4297
 10
78.5221
 20
-14.7826
 10
78.1692
 20
-14.9298
 10
78.1692
 20
-14.9298
 10
77.8163
 20
-14.7826
 10
77.6691
 20
-14.4297
  0
LWPOLYLINE
  5
D4D
330
1D
100
AcDbEntity
  8
O
  6
Continuous
 62
     7
390
11
100
AcDbPolyline
 90
       12
 70
     0
 43
0.0139
 10
73.4686
 20
-14.4297
 10
73.6158
 20
-14.0768
 10
73.9687
 20
-13.9296
 10
73.9687
 20
-13.9296
 10
74.3216
 20
-14.0768
 10
74.4687
 20
-14.4297
 10
74.4687
 20
-14.4297
 10
74.3216
 20
-14.7826
 10
73.9687
 20
-14.9298
 10
73.9687
 20
-14.9298
 10
73.6158
 20
-14.7826
 10
73.4686
 20
-14.4297
  0
LWPOLYLINE
  5
D4E
330
1D
100
AcDbEntity
  8
O
  6
Continuous
 62
     7
390
11
100
AcDbPolyline
 90
       12
 70
     0
 43
0.0139
 10
77.6691
 20
-10.2292
 10
77.8163
 20
-9.8763
 10
78.1692
 20
-9.7291
 10
78.1692
 20
-9.7291
 10
78.5221
 20
-9.8763
 10
78.6693
 20
-10.2292
 10
78.6693
 20
-10.2292
 10
78.5221
 20
-10.5821
 10
78.1692
 20
-10.7292
 10
78.1692
 20
-10.7292
 10
77.8163
 20
-10.5821
 10
77.6691
 20
-10.2292
  0
LWPOLYLINE
  5
D4F
330
1D
100
AcDbEntity
  8
O
  6
Continuous
 62
     7
390
11
100
AcDbPolyline
 90
       12
 70
     0
 43
0.0139
 10
73.4686
 20
-10.2292
 10
73.6158
 20
-9.8763
 10
73.9687
 20
-9.7291
 10
73.9687
 20
-9.7291
 10
74.3216
 20
-9.8763
 10
74.4687
 20
-10.2292
 10
74.4687
 20
-10.2292
 10
74.3216
 20
-10.5821
 10
73.9687
 20
-10.7292
 10
73.9687
 20
-10.7292
 10
73.6158
 20
-10.5821
 10
73.4686
 20
-10.2292
  0
LWPOLYLINE
  5
D50
330
1D
100
AcDbEntity
  8
O
  6
Continuous
 62
     7
390
11
100
AcDbPolyline
 90
       12
 70
     0
 43
0.0139
 10
77.6691
 20
-14.4297
 10
77.8163
 20
-14.0768
 10
78.1692
 20
-13.9296
 10
78.1692
 20
-13.9296
 10
78.5221
 20
-14.0768
 10
78.6693
 20
-14.4297
 10
78.6693
 20
-14.4297
 10
78.5221
 20
-14.7826
 10
78.1692
 20
-14.9298
 10
78.1692
 20
-14.9298
 10
77.8163
 20
-14.7826
 10
77.6691
 20
-14.4297
  0
LWPOLYLINE
  5
D51
330
1D
100
AcDbEntity
  8
O
  6
Continuous
 62
     7
390
11
100
AcDbPolyline
 90
       12
 70
     0
 43
0.0139
 10
73.4686
 20
-14.4297
 10
73.6158
 20
-14.0768
 10
73.9687
 20
-13.9296
 10
73.9687
 20
-13.9296
 10
74.3216
 20
-14.0768
 10
74.4687
 20
-14.4297
 10
74.4687
 20
-14.4297
 10
74.3216
 20
-14.7826
 10
73.9687
 20
-14.9298
 10
73.9687
 20
-14.9298
 10
73.6158
 20
-14.7826
 10
73.4686
 20
-14.4297
  0
LWPOLYLINE
  5
D52
330
1D
100
AcDbEntity
  8
O
  6
Continuous
 62
     7
390
11
100
AcDbPolyline
 90
       12
 70
     0
 43
0.0139
 10
77.6691
 20
-10.2292
 10
77.8163
 20
-9.8763
 10
78.1692
 20
-9.7291
 10
78.1692
 20
-9.7291
 10
78.5221
 20
-9.8763
 10
78.6693
 20
-10.2292
 10
78.6693
 20
-10.2292
 10
78.5221
 20
-10.5821
 10
78.1692
 20
-10.7292
 10
78.1692
 20
-10.7292
 10
77.8163
 20
-10.5821
 10
77.6691
 20
-10.2292
  0
LWPOLYLINE
  5
D53
330
1D
100
AcDbEntity
  8
O
  6
Continuous
 62
     7
390
11
100
AcDbPolyline
 90
       12
 70
     0
 43
0.0139
 10
73.4686
 20
-10.2292
 10
73.6158
 20
-9.8763
 10
73.9687
 20
-9.7291
 10
73.9687
 20
-9.7291
 10
74.3216
 20
-9.8763
 10
74.4687
 20
-10.2292
 10
74.4687
 20
-10.2292
 10
74.3216
 20
-10.5821
 10
73.9687
 20
-10.7292
 10
73.9687
 20
-10.7292
 10
73.6158
 20
-10.5821
 10
73.4686
 20
-10.2292
  0
LWPOLYLINE
  5
D54
330
1D
100
AcDbEntity
  8
O
  6
Continuous
 62
     7
390
11
100
AcDbPolyline
 90
        2
 70
     0
 43
0.0139
 10
78.1692
 20
-18.7305
 10
78.1692
 20
-17.3317
  0
LWPOLYLINE
  5
D55
330
1D
100
AcDbEntity
  8
O
  6
Continuous
 62
     7
390
11
100
AcDbPolyline
 90
        2
 70
     0
 43
0.0139
 10
73.9687
 20
-18.7305
 10
78.1692
 20
-18.7305
  0
LWPOLYLINE
  5
D56
330
1D
100
AcDbEntity
  8
O
  6
Continuous
 62
     7
390
11
100
AcDbPolyline
 90
        2
 70
     0
 43
0.0139
 10
73.9687
 20
-17.3317
 10
73.9687
 20
-18.7305
  0
LWPOLYLINE
  5
D57
330
1D
100
AcDbEntity
  8
O
  6
Continuous
 62
     7
390
11
100
AcDbPolyline
 90
        2
 70
     0
 43
0.0139
 10
85.8702
 20
-7.3305
 10
85.8702
 20
-12.3311
  0
LWPOLYLINE
  5
D58
330
1D
100
AcDbEntity
  8
O
  6
Continuous
 62
     7
390
11
100
AcDbPolyline
 90
        2
 70
     0
 43
0.0139
 10
66.2677
 20
-12.3311
 10
66.2677
 20
-7.3305
  0
LWPOLYLINE
  5
D59
330
1D
100
AcDbEntity
  8
O
  6
Continuous
 62
     7
390
11
100
AcDbPolyline
 90
        2
 70
     0
 43
0.0139
 10
80.8663
 20
-7.3305
 10
80.8663
 20
-17.3317
  0
LWPOLYLINE
  5
D5A
330
1D
100
AcDbEntity
  8
O
  6
Continuous
 62
     7
390
11
100
AcDbPolyline
 90
        2
 70
     0
 43
0.0139
 10
80.8663
 20
-17.3317
 10
71.2683
 20
-17.3317
  0
LWPOLYLINE
  5
D5B
330
1D
100
AcDbEntity
  8
O
  6
Continuous
 62
     7
390
11
100
AcDbPolyline
 90
        2
 70
     0
 43
0.0139
 10
71.2683
 20
-17.3317
 10
71.2683
 20
-7.3305
  0
LWPOLYLINE
  5
D5C
330
1D
100
AcDbEntity
  8
O
  6
Continuous
 62
     7
390
11
100
AcDbPolyline
 90
        2
 70
     0
 43
0.0139
 10
85.8702
 20
-12.3311
 10
80.8663
 20
-12.3311
  0
LWPOLYLINE
  5
D5D
330
1D
100
AcDbEntity
  8
O
  6
Continuous
 62
     7
390
11
100
AcDbPolyline
 90
        2
 70
     0
 43
0.0139
 10
71.2683
 20
-12.3311
 10
66.2677
 20
-12.3311
  0
LWPOLYLINE
  5
D5E
330
1D
100
AcDbEntity
  8
O
  6
Continuous
 62
     7
390
11
100
AcDbPolyline
 90
        2
 70
     0
 43
0.0139
 10
85.8702
 20
-7.3305
 10
85.8702
 20
-12.3311
  0
LWPOLYLINE
  5
D5F
330
1D
100
AcDbEntity
  8
O
  6
Continuous
 62
     7
390
11
100
AcDbPolyline
 90
        2
 70
     0
 43
0.0139
 10
66.2677
 20
-12.3311
 10
66.2677
 20
-7.3305
  0
LWPOLYLINE
  5
D60
330
1D
100
AcDbEntity
  8
O
  6
Continuous
 62
     7
390
11
100
AcDbPolyline
 90
        2
 70
     0
 43
0.0139
 10
80.8663
 20
-7.3305
 10
80.8663
 20
-17.3317
  0
LWPOLYLINE
  5
D61
330
1D
100
AcDbEntity
  8
O
  6
Continuous
 62
     7
390
11
100
AcDbPolyline
 90
        2
 70
     0
 43
0.0139
 10
80.8663
 20
-17.3317
 10
71.2683
 20
-17.3317
  0
LWPOLYLINE
  5
D62
330
1D
100
AcDbEntity
  8
O
  6
Continuous
 62
     7
390
11
100
AcDbPolyline
 90
        2
 70
     0
 43
0.0139
 10
71.2683
 20
-17.3317
 10
71.2683
 20
-7.3305
  0
LWPOLYLINE
  5
D63
330
1D
100
AcDbEntity
  8
O
  6
Continuous
 62
     7
390
11
100
AcDbPolyline
 90
        2
 70
     0
 43
0.0139
 10
85.8702
 20
-12.3311
 10
80.8663
 20
-12.3311
  0
LWPOLYLINE
  5
D64
330
1D
100
AcDbEntity
  8
O
  6
Continuous
 62
     7
390
11
100
AcDbPolyline
 90
        2
 70
     0
 43
0.0139
 10
71.2683
 20
-12.3311
 10
66.2677
 20
-12.3311
  0
LWPOLYLINE
  5
D65
330
1D
100
AcDbEntity
  8
O
  6
Continuous
 62
     7
390
11
100
AcDbPolyline
 90
        2
 70
     0
 43
0.0139
 10
85.8702
 20
-7.3305
 10
66.2677
 20
-7.3305
  0
LWPOLYLINE
  5
D66
330
1D
100
AcDbEntity
  8
O
  6
Continuous
 62
     7
390
11
100
AcDbPolyline
 90
        2
 70
     0
 43
0.0139
 10
78.1337
 20
-17.2822
 10
73.9332
 20
-17.2822
  0
LWPOLYLINE
  5
D67
330
1D
100
AcDbEntity
  8
O
  6
Continuous
 62
     7
390
11
100
AcDbPolyline
 90
        2
 70
     0
 43
0.0139
 10
78.1337
 20
-17.2822
 10
73.9332
 20
-17.2822
  0
LWPOLYLINE
  5
D6B
330
1D
100
AcDbEntity
  8
O
  6
Continuous
 62
     7
390
11
100
AcDbPolyline
 90
        5
 70
     0
 43
0.0139
 10
29.2677
 20
-47.7998
 10
29.2677
 20
-119.7998
 10
179.2677
 20
-119.7998
 10
179.2677
 20
-47.7998
 10
29.2677
 20
-47.7998
  0
INSERT
  5
D6C
330
1D
100
AcDbEntity
  8
O
 62
     0
390
11
100
AcDbBlockReference
  2
Group14
 10
0.0
 20
0.0
 30
0.0
  0
LWPOLYLINE
  5
D6D
330
1D
100
AcDbEntity
  8
O
  6
Continuous
 62
     7
390
11
100
AcDbPolyline
 90
        2
 70
     0
 43
0.0069
 10
115.9441
 20
-47.7998
 10
137.9441
 20
-47.7998
  0
INSERT
  5
D6E
330
1D
100
AcDbEntity
  8
O
 62
     0
390
11
100
AcDbBlockReference
  2
Group16
 10
0.0
 20
0.0
 30
0.0
  0
INSERT
  5
D6F
330
1D
100
AcDbEntity
  8
O
 62
     0
390
11
100
AcDbBlockReference
  2
Group17
 10
0.0
 20
0.0
 30
0.0
  0
INSERT
  5
D70
330
1D
100
AcDbEntity
  8
O
 62
     0
390
11
100
AcDbBlockReference
  2
Group18
 10
0.0
 20
0.0
 30
0.0
  0
INSERT
  5
D71
330
1D
100
AcDbEntity
  8
O
 62
     0
390
11
100
AcDbBlockReference
  2
Group19
 10
0.0
 20
0.0
 30
0.0
  0
INSERT
  5
D72
330
1D
100
AcDbEntity
  8
O
 62
     0
390
11
100
AcDbBlockReference
  2
Group20
 10
0.0
 20
0.0
 30
0.0
  0
INSERT
  5
D73
330
1D
100
AcDbEntity
  8
O
 62
     0
390
11
100
AcDbBlockReference
  2
Group21
 10
0.0
 20
0.0
 30
0.0
  0
INSERT
  5
D74
330
1D
100
AcDbEntity
  8
O
 62
     0
390
11
100
AcDbBlockReference
  2
Group22
 10
0.0
 20
0.0
 30
0.0
  0
LWPOLYLINE
  5
D75
330
1D
100
AcDbEntity
  8
O
  6
Continuous
 62
     7
390
11
100
AcDbPolyline
 90
        5
 70
     0
 43
0.0139
 10
227.7677
 20
-48.0498
 10
229.2677
 20
-48.0498
 10
229.2677
 20
-120.0498
 10
227.7677
 20
-120.0498
 10
227.7677
 20
-48.0498
  0
INSERT
  5
D76
330
1D
100
AcDbEntity
  8
O
 62
     0
390
11
100
AcDbBlockReference
  2
Group23
 10
0.0
 20
0.0
 30
0.0
  0
INSERT
  5
D77
330
1D
100
AcDbEntity
  8
O
 62
     0
390
11
100
AcDbBlockReference
  2
Group24
 10
0.0
 20
0.0
 30
0.0
  0
INSERT
  5
D78
330
1D
100
AcDbEntity
  8
O
 62
     0
390
11
100
AcDbBlockReference
  2
Group25
 10
0.0
 20
0.0
 30
0.0
  0
INSERT
  5
D79
330
1D
100
AcDbEntity
  8
O
 62
     0
390
11
100
AcDbBlockReference
  2
Group26
 10
0.0
 20
0.0
 30
0.0
  0
LWPOLYLINE
  5
D7A
330
1D
100
AcDbEntity
  8
O
  6
Continuous
 62
     7
390
11
100
AcDbPolyline
 90
        5
 70
     0
 43
0.0139
 10
172.7677
 20
-76.2998
 10
176.5177
 20
-76.2998
 10
176.5177
 20
-78.0498
 10
172.7677
 20
-78.0498
 10
172.7677
 20
-76.2998
  0
LWPOLYLINE
  5
D7B
330
1D
100
AcDbEntity
  8
O
  6
Continuous
 62
     7
390
11
100
AcDbPolyline
 90
        5
 70
     0
 43
0.0139
 10
172.7677
 20
-80.0498
 10
176.5177
 20
-80.0498
 10
176.5177
 20
-81.7998
 10
172.7677
 20
-81.7998
 10
172.7677
 20
-80.0498
  0
LWPOLYLINE
  5
D7C
330
1D
100
AcDbEntity
  8
O
  6
Continuous
 62
     7
390
11
100
AcDbPolyline
 90
       20
 70
     0
 43
0.0139
 10
108.7677
 20
-52.7998
 10
108.6491
 20
-53.3813
 10
108.3263
 20
-53.8583
 10
107.8492
 20
-54.1811
 10
107.2677
 20
-54.2998
 10
107.2677
 20
-54.2998
 10
106.6862
 20
-54.1811
 10
106.2091
 20
-53.8583
 10
105.8864
 20
-53.3813
 10
105.7677
 20
-52.7998
 10
105.7677
 20
-52.7998
 10
105.8864
 20
-52.2182
 10
106.2091
 20
-51.7412
 10
106.6862
 20
-51.4184
 10
107.2677
 20
-51.2998
 10
107.2677
 20
-51.2998
 10
107.8492
 20
-51.4184
 10
108.3263
 20
-51.7412
 10
108.6491
 20
-52.2182
 10
108.7677
 20
-52.7998
  0
INSERT
  5
D7E
330
1D
100
AcDbEntity
  8
O
 62
     0
390
11
100
AcDbBlockReference
  2
Group28
 10
0.0
 20
0.0
 30
0.0
  0
INSERT
  5
D80
330
1D
100
AcDbEntity
  8
O
 62
     0
390
11
100
AcDbBlockReference
  2
Group11
 10
0.0
 20
0.0
 30
0.0
  0
TEXT
  5
D81
330
1D
100
AcDbEntity
  8
O
 62
     7
390
11
100
AcDbText
 10
226.9859
 20
-95.5295
 30
0.0
 40
1.0
  1
1
 50
90.0
  7
ＭＳ_ゴシック
100
AcDbText
  0
TEXT
  5
D82
330
1D
100
AcDbEntity
  8
O
 62
     7
390
11
100
AcDbText
 10
226.9859
 20
-94.2795
 30
0.0
 40
1.0
  1
2
 50
90.0
  7
ＭＳ_ゴシック
100
AcDbText
  0
TEXT
  5
D83
330
1D
100
AcDbEntity
  8
O
 62
     7
390
11
100
AcDbText
 10
226.9859
 20
-93.0295
 30
0.0
 40
1.0
  1
3
 50
90.0
  7
ＭＳ_ゴシック
100
AcDbText
  0
TEXT
  5
D84
330
1D
100
AcDbEntity
  8
O
 62
     7
390
11
100
AcDbText
 10
226.9859
 20
-91.7795
 30
0.0
 40
1.0
  1
4
 50
90.0
  7
ＭＳ_ゴシック
100
AcDbText
  0
TEXT
  5
D85
330
1D
100
AcDbEntity
  8
O
 62
     7
390
11
100
AcDbText
 10
226.9859
 20
-90.5295
 30
0.0
 40
1.0
  1
5
 50
90.0
  7
ＭＳ_ゴシック
100
AcDbText
  0
TEXT
  5
D86
330
1D
100
AcDbEntity
  8
O
 62
     7
390
11
100
AcDbText
 10
226.9859
 20
-89.2795
 30
0.0
 40
1.0
  1
6
 50
90.0
  7
ＭＳ_ゴシック
100
AcDbText
  0
TEXT
  5
D87
330
1D
100
AcDbEntity
  8
O
 62
     7
390
11
100
AcDbText
 10
226.9859
 20
-88.0295
 30
0.0
 40
1.0
  1
7
 50
90.0
  7
ＭＳ_ゴシック
100
AcDbText
  0
TEXT
  5
D88
330
1D
100
AcDbEntity
  8
O
 62
     7
390
11
100
AcDbText
 10
226.9859
 20
-86.7795
 30
0.0
 40
1.0
  1
8
 50
90.0
  7
ＭＳ_ゴシック
100
AcDbText
  0
TEXT
  5
D89
330
1D
100
AcDbEntity
  8
O
 62
     7
390
11
100
AcDbText
 10
227.1937
 20
-95.7234
 30
0.0
 40
1.0
  1
ON
 50
180.0
  7
ＭＳ_ゴシック
100
AcDbText
  0
LWPOLYLINE
  5
D8A
330
1D
100
AcDbEntity
  8
O
  6
Continuous
 62
     7
390
11
100
AcDbPolyline
 90
        2
 70
     0
 43
0.0069
 10
225.2724
 20
-96.2795
 10
223.5224
 20
-96.2795
  0
SOLID
  5
D8B
330
1D
100
AcDbEntity
  8
O
 62
     7
390
11
100
AcDbTrace
 10
224.7146
 20
-96.0598
 30
0.0
 11
225.2724
 21
-96.2795
 31
0.0
 12
224.7146
 22
-96.4992
 32
0.0
 13
224.7146
 23
-96.4992
 33
0.0
  0
LWPOLYLINE
  5
D8C
330
1D
100
AcDbEntity
  8
O
  6
Continuous
 62
     7
390
11
100
AcDbPolyline
 90
        5
 70
     0
 43
0.0139
 10
227.7678
 20
-66.611
 10
227.7678
 20
-62.0082
 10
223.0178
 20
-62.0082
 10
223.0178
 20
-66.611
 10
227.7678
 20
-66.611
  0
LWPOLYLINE
  5
D8D
330
1D
100
AcDbEntity
  8
O
  6
Continuous
 62
     7
390
11
100
AcDbPolyline
 90
        5
 70
     0
 43
0.0069
 10
225.5178
 20
-65.361
 10
225.5178
 20
-64.361
 10
223.0178
 20
-64.361
 10
223.0178
 20
-65.361
 10
225.5178
 20
-65.361
  0
LWPOLYLINE
  5
D8E
330
1D
100
AcDbEntity
  8
O
  6
Continuous
 62
     7
390
11
100
AcDbPolyline
 90
        2
 70
     0
 43
0.0069
 10
223.7678
 20
-65.361
 10
223.7678
 20
-64.361
  0
LWPOLYLINE
  5
D8F
330
1D
100
AcDbEntity
  8
O
  6
Continuous
 62
     7
390
11
100
AcDbPolyline
 90
        5
 70
     0
 43
0.0069
 10
225.5178
 20
-64.111
 10
225.5178
 20
-63.111
 10
223.0178
 20
-63.111
 10
223.0178
 20
-64.111
 10
225.5178
 20
-64.111
  0
LWPOLYLINE
  5
D90
330
1D
100
AcDbEntity
  8
O
  6
Continuous
 62
     7
390
11
100
AcDbPolyline
 90
        2
 70
     0
 43
0.0069
 10
223.7678
 20
-64.111
 10
223.7678
 20
-63.111
  0
TEXT
  5
D91
330
1D
100
AcDbEntity
  8
O
 62
     7
390
11
100
AcDbText
 10
226.9813
 20
-65.111
 30
0.0
 40
1.0
  1
1
 50
90.0
  7
ＭＳ_ゴシック
100
AcDbText
  0
TEXT
  5
D92
330
1D
100
AcDbEntity
  8
O
 62
     7
390
11
100
AcDbText
 10
226.9813
 20
-63.861
 30
0.0
 40
1.0
  1
2
 50
90.0
  7
ＭＳ_ゴシック
100
AcDbText
  0
TEXT
  5
D93
330
1D
100
AcDbEntity
  8
O
 62
     7
390
11
100
AcDbText
 10
227.1891
 20
-65.3048
 30
0.0
 40
1.0
  1
ON
 50
180.0
  7
ＭＳ_ゴシック
100
AcDbText
  0
LWPOLYLINE
  5
D94
330
1D
100
AcDbEntity
  8
O
  6
Continuous
 62
     7
390
11
100
AcDbPolyline
 90
        2
 70
     0
 43
0.0069
 10
225.2678
 20
-65.861
 10
223.5178
 20
-65.861
  0
SOLID
  5
D95
330
1D
100
AcDbEntity
  8
O
 62
     7
390
11
100
AcDbTrace
 10
224.71
 20
-65.6413
 30
0.0
 11
225.2678
 21
-65.861
 31
0.0
 12
224.71
 22
-66.0806
 32
0.0
 13
224.71
 23
-66.0806
 33
0.0
  0
INSERT
  5
DA0
330
1D
100
AcDbEntity
  8
O
 62
     0
390
11
100
AcDbBlockReference
  2
Group6
 10
-0.0000000000000071
 20
-20.13089999999999
 30
0.0
 41
-1.0
 50
180.0
  0
INSERT
  5
DA1
330
1D
100
AcDbEntity
  8
O
 62
     0
390
11
100
AcDbBlockReference
  2
Group7
 10
-0.0000000000000071
 20
-20.13089999999999
 30
0.0
 41
-1.0
 50
180.0
  0
INSERT
  5
DA2
330
1D
100
AcDbEntity
  8
O
 62
     0
390
11
100
AcDbBlockReference
  2
Group8
 10
-0.0000000000000071
 20
-20.13089999999999
 30
0.0
 41
-1.0
 50
180.0
  0
INSERT
  5
DA3
330
1D
100
AcDbEntity
  8
O
 62
     0
390
11
100
AcDbBlockReference
  2
Group9
 10
-0.0000000000000071
 20
-20.13089999999999
 30
0.0
 41
-1.0
 50
180.0
  0
INSERT
  5
DA4
330
1D
100
AcDbEntity
  8
O
 62
     0
390
11
100
AcDbBlockReference
  2
Group10
 10
-0.0000000000000071
 20
-20.13089999999999
 30
0.0
 41
-1.0
 50
180.0
  0
ENDSEC
  0
SECTION
  2
OBJECTS
  0
DICTIONARY
  5
C
330
0
100
AcDbDictionary
281
     1
  3
ACAD_DETAILVIEWSTYLE
350
D9B
  3
ACAD_GROUP
350
D
  3
ACAD_LAYOUT
350
1A
  3
ACAD_MATERIAL
350
CDD
  3
ACAD_MLEADERSTYLE
350
CE3
  3
ACAD_MLINESTYLE
350
17
  3
ACAD_PLOTSETTINGS
350
19
  3
ACAD_PLOTSTYLENAME
350
E
  3
ACAD_SCALELIST
350
C9E
  3
ACAD_SECTIONVIEWSTYLE
350
D9C
  3
ACAD_TABLESTYLE
350
CE1
  3
ACAD_VISUALSTYLE
350
CC4
  3
ACDB_RECOMPOSE_DATA
350
DA8
  3
AcDbVariableDictionary
350
D96
  0
DICTIONARY
  5
D9B
102
{ACAD_REACTORS
330
C
102
}
330
C
100
AcDbDictionary
281
     1
  0
DICTIONARY
  5
D
102
{ACAD_REACTORS
330
C
102
}
330
C
100
AcDbDictionary
281
     1
  0
DICTIONARY
  5
1A
102
{ACAD_REACTORS
330
C
102
}
330
C
100
AcDbDictionary
281
     1
  3
Model
350
1E
  3
レイアウト 1
350
1C
  0
DICTIONARY
  5
CDD
102
{ACAD_REACTORS
330
C
102
}
330
C
100
AcDbDictionary
281
     1
  3
ByBlock
350
CDF
  3
ByLayer
350
CDE
  3
Global
350
CE0
  0
DICTIONARY
  5
CE3
102
{ACAD_REACTORS
330
C
102
}
330
C
100
AcDbDictionary
281
     1
  3
Standard
350
CE4
  0
DICTIONARY
  5
17
102
{ACAD_REACTORS
330
C
102
}
330
C
100
AcDbDictionary
281
     1
  3
Standard
350
18
  0
DICTIONARY
  5
19
102
{ACAD_REACTORS
330
C
102
}
330
C
100
AcDbDictionary
281
     1
  0
ACDBDICTIONARYWDFLT
  5
E
102
{ACAD_REACTORS
330
C
102
}
330
C
100
AcDbDictionary
281
     1
  3
ByColor
350
11
  3
Normal
350
F
100
AcDbDictionaryWithDefault
340
F
  0
DICTIONARY
  5
C9E
102
{ACAD_REACTORS
330
C
102
}
330
C
100
AcDbDictionary
281
     1
  3
A0
350
C9F
  3
A1
350
CA0
  3
A2
350
CA1
  3
A3
350
CA2
  3
A4
350
CA3
  3
A5
350
CA4
  3
A6
350
CA5
  3
A7
350
CA6
  3
A8
350
CA7
  3
A9
350
CA8
  3
B0
350
CA9
  3
B1
350
CAA
  3
B2
350
CAB
  3
B3
350
CAC
  3
B4
350
CAD
  3
B5
350
CAE
  3
B6
350
CAF
  3
B7
350
CB0
  3
B8
350
CB1
  3
B9
350
CB2
  3
C0
350
CB3
  3
C1
350
CB4
  3
C2
350
CB5
  3
C3
350
CB6
  3
C4
350
CB7
  3
C5
350
CB8
  3
C6
350
CB9
  3
C7
350
CBA
  3
C8
350
CBB
  3
C9
350
CBC
  3
D0
350
CBD
  3
D1
350
CBE
  3
D2
350
CBF
  0
DICTIONARY
  5
D9C
102
{ACAD_REACTORS
330
C
102
}
330
C
100
AcDbDictionary
281
     1
  0
DICTIONARY
  5
CE1
102
{ACAD_REACTORS
330
C
102
}
330
C
100
AcDbDictionary
281
     1
  3
Standard
350
CE2
  0
DICTIONARY
  5
CC4
102
{ACAD_REACTORS
330
C
102
}
330
C
100
AcDbDictionary
281
     1
  3
2dWireframe
350
CC9
  3
Basic
350
CCC
  3
Brighten
350
CD0
  3
ColorChange
350
CD4
  3
Conceptual
350
CCE
  3
Dim
350
CCF
  3
EdgeColorOff
350
CD7
  3
Facepattern
350
CD3
  3
Flat
350
CC5
  3
FlatWithEdges
350
CC6
  3
Gouraud
350
CC7
  3
GouraudWithEdges
350
CC8
  3
Hidden
350
CCB
  3
JitterOff
350
CD5
  3
Linepattern
350
CD2
  3
OverhangOff
350
CD6
  3
Realistic
350
CCD
  3
Shaded
350
CDC
  3
Shaded with edges
350
CDB
  3
Shades of Gray
350
CD8
  3
Sketchy
350
CD9
  3
Thicken
350
CD1
  3
Wireframe
350
CCA
  3
X-Ray
350
CDA
  0
XRECORD
  5
DA8
102
{ACAD_REACTORS
330
C
102
}
330
C
100
AcDbXrecord
280
     1
 90
        1
330
CE2
  0
DICTIONARY
  5
D96
102
{ACAD_REACTORS
330
C
102
}
330
C
100
AcDbDictionary
281
     1
  3
CANNOSCALE
350
D97
  3
CMLEADERSTYLE
350
D99
  3
CTABLESTYLE
350
D98
  3
MSLTSCALE
350
D9A
  0
LAYOUT
  5
1E
102
{ACAD_REACTORS
330
1A
102
}
330
1A
100
AcDbPlotSettings
  1

  2
none_device
  4
ISO_A4_(210.00_x_297.00_MM)
  6

 40
20.0
 41
7.5
 42
7.5
 43
20.0
 44
210.0
 45
297.0
 46
0.0
 47
0.0
 48
0.0
 49
0.0
140
0.0
141
0.0
142
1.0
143
1.0
 70
  1712
 72
     0
 73
     1
 74
     0
  7

 75
     0
 76
     0
 77
     2
 78
   300
147
1.0
148
0.0
149
0.0
100
AcDbLayout
  1
Model
 70
     1
 71
     0
 10
0.0
 20
0.0
 11
12.0
 21
9.0
 12
0.0
 22
0.0
 32
0.0
 14
17.26075
 24
-122.80675
 34
0.0
 15
236.77465
 25
0.20715
 35
0.0
146
0.0
 13
0.0
 23
0.0
 33
0.0
 16
1.0
 26
0.0
 36
0.0
 17
0.0
 27
1.0
 37
0.0
 76
     0
330
1D
331
C9D
  0
LAYOUT
  5
1C
102
{ACAD_REACTORS
330
1A
102
}
330
1A
100
AcDbPlotSettings
  1

  2
none_device
  4
ISO_A4_(210.00_x_297.00_MM)
  6

 40
20.0
 41
7.5
 42
7.5
 43
20.0
 44
210.0
 45
297.0
 46
0.0
 47
0.0
 48
0.0
 49
0.0
140
0.0
141
0.0
142
1.0
143
1.0
 70
   688
 72
     0
 73
     1
 74
     5
  7

 75
    16
 76
     0
 77
     2
 78
   300
147
1.0
148
0.0
149
0.0
100
AcDbLayout
  1
レイアウト 1
 70
     1
 71
     1
 10
0.0
 20
0.0
 11
12.0
 21
9.0
 12
0.0
 22
0.0
 32
0.0
 14
1.000000000000000E+20
 24
1.000000000000000E+20
 34
1.000000000000000E+20
 15
-1.000000000000000E+20
 25
-1.000000000000000E+20
 35
-1.000000000000000E+20
146
0.0
 13
0.0
 23
0.0
 33
0.0
 16
1.0
 26
0.0
 36
0.0
 17
0.0
 27
1.0
 37
0.0
 76
     0
330
1B
  0
MATERIAL
  5
CDF
102
{ACAD_REACTORS
330
CDD
102
}
330
CDD
100
AcDbMaterial
  1
ByBlock
 72
     1
 94
      127
  0
MATERIAL
  5
CDE
102
{ACAD_REACTORS
330
CDD
102
}
330
CDD
100
AcDbMaterial
  1
ByLayer
 72
     1
 94
      127
  0
MATERIAL
  5
CE0
102
{ACAD_REACTORS
330
CDD
102
}
330
CDD
100
AcDbMaterial
  1
Global
 72
     1
 94
      127
  0
MLEADERSTYLE
  5
CE4
102
{ACAD_REACTORS
330
CE3
102
}
330
CE3
100
AcDbMLeaderStyle
179
     2
170
     2
171
     1
172
     0
 90
        2
 40
0.0
 41
0.0
173
     1
 91
-1056964608
340
16
 92
       -2
290
     1
 42
0.09
291
     1
 43
0.36
  3
Standard
341
0
 44
0.18
300

342
12
174
     1
178
     6
175
     1
176
     0
 93
-1056964608
 45
0.18
292
     0
297
     0
 46
0.18
343
0
 94
-1056964608
 47
1.0
 49
1.0
140
1.0
293
     1
141
0.0
294
     1
177
     0
142
1.0
295
     0
296
     0
143
0.125
271
     0
272
     9
273
     9
298
     0
1001
ACAD_MLEADERVER
1070
     2
  0
MLINESTYLE
  5
18
102
{ACAD_REACTORS
330
17
102
}
330
17
100
AcDbMlineStyle
  2
Standard
 70
     0
  3

 62
   256
 51
90.0
 52
90.0
 71
     2
 49
0.5
 62
   256
  6
BYLAYER
 49
-0.5
 62
   256
  6
BYLAYER
  0
ACDBPLACEHOLDER
  5
11
102
{ACAD_REACTORS
330
E
102
}
330
E
  0
ACDBPLACEHOLDER
  5
F
102
{ACAD_REACTORS
330
E
102
}
330
E
  0
SCALE
  5
C9F
102
{ACAD_REACTORS
330
C9E
102
}
330
C9E
100
AcDbScale
 70
     0
300
1:1
140
1.0
141
1.0
290
     1
  0
SCALE
  5
CA0
102
{ACAD_REACTORS
330
C9E
102
}
330
C9E
100
AcDbScale
 70
     0
300
1:2
140
1.0
141
2.0
290
     0
  0
SCALE
  5
CA1
102
{ACAD_REACTORS
330
C9E
102
}
330
C9E
100
AcDbScale
 70
     0
300
1:4
140
1.0
141
4.0
290
     0
  0
SCALE
  5
CA2
102
{ACAD_REACTORS
330
C9E
102
}
330
C9E
100
AcDbScale
 70
     0
300
1:5
140
1.0
141
5.0
290
     0
  0
SCALE
  5
CA3
102
{ACAD_REACTORS
330
C9E
102
}
330
C9E
100
AcDbScale
 70
     0
300
1:8
140
1.0
141
8.0
290
     0
  0
SCALE
  5
CA4
102
{ACAD_REACTORS
330
C9E
102
}
330
C9E
100
AcDbScale
 70
     0
300
1:10
140
1.0
141
10.0
290
     0
  0
SCALE
  5
CA5
102
{ACAD_REACTORS
330
C9E
102
}
330
C9E
100
AcDbScale
 70
     0
300
1:16
140
1.0
141
16.0
290
     0
  0
SCALE
  5
CA6
102
{ACAD_REACTORS
330
C9E
102
}
330
C9E
100
AcDbScale
 70
     0
300
1:20
140
1.0
141
20.0
290
     0
  0
SCALE
  5
CA7
102
{ACAD_REACTORS
330
C9E
102
}
330
C9E
100
AcDbScale
 70
     0
300
1:30
140
1.0
141
30.0
290
     0
  0
SCALE
  5
CA8
102
{ACAD_REACTORS
330
C9E
102
}
330
C9E
100
AcDbScale
 70
     0
300
1:40
140
1.0
141
40.0
290
     0
  0
SCALE
  5
CA9
102
{ACAD_REACTORS
330
C9E
102
}
330
C9E
100
AcDbScale
 70
     0
300
1:50
140
1.0
141
50.0
290
     0
  0
SCALE
  5
CAA
102
{ACAD_REACTORS
330
C9E
102
}
330
C9E
100
AcDbScale
 70
     0
300
1:100
140
1.0
141
100.0
290
     0
  0
SCALE
  5
CAB
102
{ACAD_REACTORS
330
C9E
102
}
330
C9E
100
AcDbScale
 70
     0
300
2:1
140
2.0
141
1.0
290
     0
  0
SCALE
  5
CAC
102
{ACAD_REACTORS
330
C9E
102
}
330
C9E
100
AcDbScale
 70
     0
300
4:1
140
4.0
141
1.0
290
     0
  0
SCALE
  5
CAD
102
{ACAD_REACTORS
330
C9E
102
}
330
C9E
100
AcDbScale
 70
     0
300
8:1
140
8.0
141
1.0
290
     0
  0
SCALE
  5
CAE
102
{ACAD_REACTORS
330
C9E
102
}
330
C9E
100
AcDbScale
 70
     0
300
10:1
140
10.0
141
1.0
290
     0
  0
SCALE
  5
CAF
102
{ACAD_REACTORS
330
C9E
102
}
330
C9E
100
AcDbScale
 70
     0
300
100:1
140
100.0
141
1.0
290
     0
  0
SCALE
  5
CB0
102
{ACAD_REACTORS
330
C9E
102
}
330
C9E
100
AcDbScale
 70
     0
300
1/128" = 1'-0"
140
0.0078125
141
12.0
290
     0
  0
SCALE
  5
CB1
102
{ACAD_REACTORS
330
C9E
102
}
330
C9E
100
AcDbScale
 70
     0
300
1/64" = 1'-0"
140
0.015625
141
12.0
290
     0
  0
SCALE
  5
CB2
102
{ACAD_REACTORS
330
C9E
102
}
330
C9E
100
AcDbScale
 70
     0
300
1/32" = 1'-0"
140
0.03125
141
12.0
290
     0
  0
SCALE
  5
CB3
102
{ACAD_REACTORS
330
C9E
102
}
330
C9E
100
AcDbScale
 70
     0
300
1/16" = 1'-0"
140
0.0625
141
12.0
290
     0
  0
SCALE
  5
CB4
102
{ACAD_REACTORS
330
C9E
102
}
330
C9E
100
AcDbScale
 70
     0
300
3/32" = 1'-0"
140
0.09375
141
12.0
290
     0
  0
SCALE
  5
CB5
102
{ACAD_REACTORS
330
C9E
102
}
330
C9E
100
AcDbScale
 70
     0
300
1/8" = 1'-0"
140
0.125
141
12.0
290
     0
  0
SCALE
  5
CB6
102
{ACAD_REACTORS
330
C9E
102
}
330
C9E
100
AcDbScale
 70
     0
300
3/16" = 1'-0"
140
0.1875
141
12.0
290
     0
  0
SCALE
  5
CB7
102
{ACAD_REACTORS
330
C9E
102
}
330
C9E
100
AcDbScale
 70
     0
300
1/4" = 1'-0"
140
0.25
141
12.0
290
     0
  0
SCALE
  5
CB8
102
{ACAD_REACTORS
330
C9E
102
}
330
C9E
100
AcDbScale
 70
     0
300
3/8" = 1'-0"
140
0.375
141
12.0
290
     0
  0
SCALE
  5
CB9
102
{ACAD_REACTORS
330
C9E
102
}
330
C9E
100
AcDbScale
 70
     0
300
1/2" = 1'-0"
140
0.5
141
12.0
290
     0
  0
SCALE
  5
CBA
102
{ACAD_REACTORS
330
C9E
102
}
330
C9E
100
AcDbScale
 70
     0
300
3/4" = 1'-0"
140
0.75
141
12.0
290
     0
  0
SCALE
  5
CBB
102
{ACAD_REACTORS
330
C9E
102
}
330
C9E
100
AcDbScale
 70
     0
300
1" = 1'-0"
140
1.0
141
12.0
290
     0
  0
SCALE
  5
CBC
102
{ACAD_REACTORS
330
C9E
102
}
330
C9E
100
AcDbScale
 70
     0
300
1-1/2" = 1'-0"
140
1.5
141
12.0
290
     0
  0
SCALE
  5
CBD
102
{ACAD_REACTORS
330
C9E
102
}
330
C9E
100
AcDbScale
 70
     0
300
3" = 1'-0"
140
3.0
141
12.0
290
     0
  0
SCALE
  5
CBE
102
{ACAD_REACTORS
330
C9E
102
}
330
C9E
100
AcDbScale
 70
     0
300
6" = 1'-0"
140
6.0
141
12.0
290
     0
  0
SCALE
  5
CBF
102
{ACAD_REACTORS
330
C9E
102
}
330
C9E
100
AcDbScale
 70
     0
300
1'-0" = 1'-0"
140
12.0
141
12.0
290
     0
  0
TABLESTYLE
  5
CE2
102
{ACAD_REACTORS
330
CE1
102
}
102
{ACAD_XDICTIONARY
360
DA6
102
}
330
CE1
100
AcDbTableStyle
  3
Standard
 70
     0
 71
     0
 40
0.06
 41
0.06
280
     0
281
     0
  7
STANDARD
140
0.18
170
     2
 62
     0
 63
   257
283
     1
 90
        4
 91
        0
  1

274
    -2
284
     1
 64
     0
275
    -2
285
     1
 65
     0
276
    -2
286
     1
 66
     0
277
    -2
287
     1
 67
     0
278
    -2
288
     1
 68
     0
279
    -2
289
     1
 69
     0
  7
STANDARD
140
0.25
170
     5
 62
     0
 63
   257
283
     1
 90
        4
 91
        0
  1

274
    -2
284
     1
 64
     0
275
    -2
285
     1
 65
     0
276
    -2
286
     1
 66
     0
277
    -2
287
     1
 67
     0
278
    -2
288
     1
 68
     0
279
    -2
289
     1
 69
     0
  7
STANDARD
140
0.18
170
     5
 62
     0
 63
   257
283
     1
 90
        4
 91
        0
  1

274
    -2
284
     1
 64
     0
275
    -2
285
     1
 65
     0
276
    -2
286
     1
 66
     0
277
    -2
287
     1
 67
     0
278
    -2
288
     1
 68
     0
279
    -2
289
     1
 69
     0
  0
VISUALSTYLE
  5
CC9
102
{ACAD_REACTORS
330
CC4
102
}
330
CC4
100
AcDbVisualStyle
  2
2dWireframe
 70
     4
177
     3
291
     0
 70
    58
 90
        0
176
     1
 90
        2
176
     1
 90
        0
176
     1
 90
        0
176
     1
 40
0.6
176
     1
 40
30.0
176
     1
 62
     7
420
 16777215
176
     1
 90
        1
176
     1
 90
        4
176
     1
 62
     7
176
     1
 62
   257
176
     1
 90
        1
176
     1
 90
        1
176
     1
 40
1.0
176
     1
 90
        0
176
     1
 62
   257
176
     1
 40
1.0
176
     1
 90
        1
176
     1
 90
        6
176
     1
 90
        2
176
     1
 62
     7
176
     1
 90
        5
176
     1
 90
        0
176
     1
 90
        0
176
     1
290
     0
176
     1
 90
        1
176
     1
 40
0.0
176
     1
 90
        0
176
     1
290
     1
176
     1
290
     1
176
     1
290
     0
176
     1
290
     0
176
     1
290
     0
176
     1
290
     0
176
     1
290
     0
176
     1
290
     0
176
     1
290
     0
176
     1
 90
       50
176
     1
 40
0.0
176
     1
 40
1.0
176
     1
 90
        0
176
     1
 62
    18
420
        0
176
     1
 90
       50
176
     1
 90
        3
176
     1
 62
     5
420
      255
176
     1
290
     0
176
     1
 90
       50
176
     1
 90
       50
176
     1
 90
       50
176
     1
290
     0
176
     1
 90
       50
176
     1
 62
   256
176
     0
 40
1.0
176
     0
 90
        2
176
     1
  1
strokes_ogs.tif
176
     1
290
     0
176
     1
 40
1.0
176
     1
 40
1.0
176
     1
  0
VISUALSTYLE
  5
CCC
102
{ACAD_REACTORS
330
CC4
102
}
330
CC4
100
AcDbVisualStyle
  2
Basic
 70
     7
177
     3
291
     1
 70
    58
 90
        1
176
     1
 90
        0
176
     1
 90
        1
176
     1
 90
        0
176
     1
 40
0.6
176
     1
 40
30.0
176
     1
 62
     7
420
 16777215
176
     1
 90
        0
176
     1
 90
        4
176
     1
 62
     7
176
     1
 62
   257
176
     1
 90
        1
176
     1
 90
        1
176
     1
 40
1.0
176
     1
 90
        8
176
     1
 62
     7
176
     1
 40
1.0
176
     1
 90
        1
176
     1
 90
        6
176
     1
 90
        2
176
     1
 62
     7
176
     1
 90
        5
176
     1
 90
        0
176
     1
 90
        0
176
     1
290
     0
176
     1
 90
        1
176
     1
 40
0.0
176
     1
 90
        0
176
     1
290
     0
176
     1
290
     1
176
     1
290
     1
176
     1
290
     0
176
     1
290
     0
176
     1
290
     0
176
     1
290
     0
176
     1
290
     0
176
     1
290
     0
176
     1
 90
       50
176
     1
 40
0.0
176
     1
 40
1.0
176
     1
 90
        0
176
     1
 62
    18
420
        0
176
     1
 90
       50
176
     1
 90
        3
176
     1
 62
     5
420
      255
176
     1
290
     0
176
     1
 90
       50
176
     1
 90
       50
176
     1
 90
       50
176
     1
290
     0
176
     1
 90
       50
176
     1
 62
   256
176
     0
 40
1.0
176
     0
 90
        2
176
     1
  1
strokes_ogs.tif
176
     1
290
     0
176
     1
 40
1.0
176
     1
 40
1.0
176
     1
  0
VISUALSTYLE
  5
CD0
102
{ACAD_REACTORS
330
CC4
102
}
330
CC4
100
AcDbVisualStyle
  2
Brighten
 70
    12
177
     3
291
     1
 70
    58
 90
        2
176
     1
 90
        2
176
     1
 90
        0
176
     1
 90
        0
176
     1
 40
0.6
176
     1
 40
30.0
176
     1
 62
     7
420
 16777215
176
     1
 90
        1
176
     1
 90
        4
176
     1
 62
     7
176
     1
 62
   257
176
     1
 90
        1
176
     1
 90
        1
176
     1
 40
1.0
176
     1
 90
        8
176
     1
 62
     7
176
     1
 40
1.0
176
     1
 90
        1
176
     1
 90
        6
176
     1
 90
        2
176
     1
 62
     7
176
     1
 90
        5
176
     1
 90
        0
176
     1
 90
        0
176
     1
290
     0
176
     1
 90
        1
176
     1
 40
50.0
176
     1
 90
        0
176
     1
290
     0
176
     1
290
     1
176
     1
290
     1
176
     1
290
     0
176
     1
290
     0
176
     1
290
     0
176
     1
290
     0
176
     1
290
     0
176
     1
290
     0
176
     1
 90
       50
176
     1
 40
0.0
176
     1
 40
1.0
176
     1
 90
        0
176
     1
 62
    18
420
        0
176
     1
 90
       50
176
     1
 90
        3
176
     1
 62
     5
420
      255
176
     1
290
     0
176
     1
 90
       50
176
     1
 90
       50
176
     1
 90
       50
176
     1
290
     0
176
     1
 90
       50
176
     1
 62
   256
176
     0
 40
1.0
176
     0
 90
        2
176
     1
  1
strokes_ogs.tif
176
     1
290
     0
176
     1
 40
1.0
176
     1
 40
1.0
176
     1
  0
VISUALSTYLE
  5
CD4
102
{ACAD_REACTORS
330
CC4
102
}
330
CC4
100
AcDbVisualStyle
  2
ColorChange
 70
    16
177
     3
291
     1
 70
    58
 90
        2
176
     1
 90
        2
176
     1
 90
        3
176
     1
 90
        0
176
     1
 40
0.6
176
     1
 40
30.0
176
     1
 62
     8
420
  8421504
176
     1
 90
        1
176
     1
 90
        4
176
     1
 62
     7
176
     1
 62
   257
176
     1
 90
        1
176
     1
 90
        1
176
     1
 40
1.0
176
     1
 90
        8
176
     1
 62
     8
420
  8421504
176
     1
 40
1.0
176
     1
 90
        1
176
     1
 90
        6
176
     1
 90
        2
176
     1
 62
     7
176
     1
 90
        5
176
     1
 90
        0
176
     1
 90
        0
176
     1
290
     0
176
     1
 90
        1
176
     1
 40
0.0
176
     1
 90
        0
176
     1
290
     0
176
     1
290
     1
176
     1
290
     1
176
     1
290
     0
176
     1
290
     0
176
     1
290
     0
176
     1
290
     0
176
     1
290
     0
176
     1
290
     0
176
     1
 90
       50
176
     1
 40
0.0
176
     1
 40
1.0
176
     1
 90
        0
176
     1
 62
    18
420
        0
176
     1
 90
       50
176
     1
 90
        3
176
     1
 62
     5
420
      255
176
     1
290
     0
176
     1
 90
       50
176
     1
 90
       50
176
     1
 90
       50
176
     1
290
     0
176
     1
 90
       50
176
     1
 62
   256
176
     0
 40
1.0
176
     0
 90
        2
176
     1
  1
strokes_ogs.tif
176
     1
290
     0
176
     1
 40
1.0
176
     1
 40
1.0
176
     1
  0
VISUALSTYLE
  5
CCE
102
{ACAD_REACTORS
330
CC4
102
}
330
CC4
100
AcDbVisualStyle
  2
Conceptual
 70
     9
177
     3
291
     0
 70
    58
 90
        3
176
     1
 90
        2
176
     1
 90
        0
176
     1
 90
        0
176
     1
 40
0.6
176
     1
 40
30.0
176
     1
 62
     7
420
 16777215
176
     1
 90
        2
176
     1
 90
        2
176
     1
 62
     7
176
     1
 62
   257
176
     1
 90
        1
176
     1
 90
        1
176
     1
 40
40.0
176
     1
 90
        8
176
     1
 62
     7
176
     1
 40
1.0
176
     1
 90
        1
176
     1
 90
        6
176
     1
 90
        2
176
     1
 62
     7
176
     1
 90
        3
176
     1
 90
        0
176
     1
 90
        0
176
     1
290
     0
176
     1
 90
        1
176
     1
 40
0.0
176
     1
 90
        0
176
     1
290
     0
176
     1
290
     1
176
     1
290
     1
176
     1
290
     0
176
     1
290
     0
176
     1
290
     0
176
     1
290
     0
176
     1
290
     0
176
     1
290
     0
176
     1
 90
       50
176
     1
 40
0.0
176
     1
 40
1.0
176
     1
 90
        0
176
     1
 62
    18
420
        0
176
     1
 90
       50
176
     1
 90
        3
176
     1
 62
     5
420
      255
176
     1
290
     0
176
     1
 90
       50
176
     1
 90
       50
176
     1
 90
       50
176
     1
290
     0
176
     1
 90
       50
176
     1
 62
   256
176
     0
 40
1.0
176
     0
 90
        2
176
     1
  1
strokes_ogs.tif
176
     1
290
     0
176
     1
 40
1.0
176
     1
 40
1.0
176
     1
  0
VISUALSTYLE
  5
CCF
102
{ACAD_REACTORS
330
CC4
102
}
330
CC4
100
AcDbVisualStyle
  2
Dim
 70
    11
177
     3
291
     1
 70
    58
 90
        2
176
     1
 90
        2
176
     1
 90
        0
176
     1
 90
        0
176
     1
 40
0.6
176
     1
 40
30.0
176
     1
 62
     7
420
 16777215
176
     1
 90
        1
176
     1
 90
        4
176
     1
 62
     7
176
     1
 62
   257
176
     1
 90
        1
176
     1
 90
        1
176
     1
 40
1.0
176
     1
 90
        8
176
     1
 62
     7
176
     1
 40
1.0
176
     1
 90
        1
176
     1
 90
        6
176
     1
 90
        2
176
     1
 62
     7
176
     1
 90
        5
176
     1
 90
        0
176
     1
 90
        0
176
     1
290
     0
176
     1
 90
        1
176
     1
 40
-50.0
176
     1
 90
        0
176
     1
290
     0
176
     1
290
     1
176
     1
290
     1
176
     1
290
     0
176
     1
290
     0
176
     1
290
     0
176
     1
290
     0
176
     1
290
     0
176
     1
290
     0
176
     1
 90
       50
176
     1
 40
0.0
176
     1
 40
1.0
176
     1
 90
        0
176
     1
 62
    18
420
        0
176
     1
 90
       50
176
     1
 90
        3
176
     1
 62
     5
420
      255
176
     1
290
     0
176
     1
 90
       50
176
     1
 90
       50
176
     1
 90
       50
176
     1
290
     0
176
     1
 90
       50
176
     1
 62
   256
176
     0
 40
1.0
176
     0
 90
        2
176
     1
  1
strokes_ogs.tif
176
     1
290
     0
176
     1
 40
1.0
176
     1
 40
1.0
176
     1
  0
VISUALSTYLE
  5
CD7
102
{ACAD_REACTORS
330
CC4
102
}
330
CC4
100
AcDbVisualStyle
  2
EdgeColorOff
 70
    22
177
     3
291
     1
 70
    58
 90
        2
176
     0
 90
        2
176
     0
 90
        0
176
     0
 90
        0
176
     0
 40
0.6
176
     0
 40
30.0
176
     0
 62
     7
420
 16777215
176
     0
 90
        1
176
     0
 90
        4
176
     0
 62
     7
176
     0
 62
   257
176
     0
 90
        1
176
     0
 90
        1
176
     0
 40
1.0
176
     0
 90
        8
176
     0
 62
     7
176
     0
 40
1.0
176
     0
 90
        1
176
     0
 90
        6
176
     0
 90
        2
176
     0
 62
     7
176
     0
 90
        5
176
     0
 90
        0
176
     0
 90
        0
176
     0
290
     0
176
     0
 90
        1
176
     0
 40
0.0
176
     0
 90
        0
176
     0
290
     0
176
     1
290
     1
176
     1
290
     1
176
     1
290
     0
176
     1
290
     0
176
     1
290
     0
176
     1
290
     0
176
     1
290
     0
176
     1
290
     0
176
     1
 90
       50
176
     1
 40
0.0
176
     1
 40
1.0
176
     1
 90
        0
176
     1
 62
    18
420
        0
176
     1
 90
       50
176
     1
 90
        3
176
     1
 62
     5
420
      255
176
     1
290
     0
176
     1
 90
       50
176
     1
 90
       50
176
     1
 90
       50
176
     1
290
     0
176
     1
 90
       50
176
     1
 62
   256
176
     0
 40
1.0
176
     0
 90
        2
176
     1
  1
strokes_ogs.tif
176
     1
290
     0
176
     1
 40
1.0
176
     1
 40
1.0
176
     1
  0
VISUALSTYLE
  5
CD3
102
{ACAD_REACTORS
330
CC4
102
}
330
CC4
100
AcDbVisualStyle
  2
Facepattern
 70
    15
177
     3
291
     1
 70
    58
 90
        2
176
     1
 90
        2
176
     1
 90
        0
176
     1
 90
        0
176
     1
 40
0.6
176
     1
 40
30.0
176
     1
 62
     7
420
 16777215
176
     1
 90
        1
176
     1
 90
        4
176
     1
 62
     7
176
     1
 62
   257
176
     1
 90
        1
176
     1
 90
        1
176
     1
 40
1.0
176
     1
 90
        8
176
     1
 62
     7
176
     1
 40
1.0
176
     1
 90
        1
176
     1
 90
        6
176
     1
 90
        2
176
     1
 62
     7
176
     1
 90
        5
176
     1
 90
        0
176
     1
 90
        0
176
     1
290
     0
176
     1
 90
        1
176
     1
 40
0.0
176
     1
 90
        0
176
     1
290
     0
176
     1
290
     1
176
     1
290
     1
176
     1
290
     0
176
     1
290
     0
176
     1
290
     0
176
     1
290
     0
176
     1
290
     0
176
     1
290
     0
176
     1
 90
       50
176
     1
 40
0.0
176
     1
 40
1.0
176
     1
 90
        0
176
     1
 62
    18
420
        0
176
     1
 90
       50
176
     1
 90
        3
176
     1
 62
     5
420
      255
176
     1
290
     0
176
     1
 90
       50
176
     1
 90
       50
176
     1
 90
       50
176
     1
290
     0
176
     1
 90
       50
176
     1
 62
   256
176
     0
 40
1.0
176
     0
 90
        2
176
     1
  1
strokes_ogs.tif
176
     1
290
     0
176
     1
 40
1.0
176
     1
 40
1.0
176
     1
  0
VISUALSTYLE
  5
CC5
102
{ACAD_REACTORS
330
CC4
102
}
330
CC4
100
AcDbVisualStyle
  2
Flat
 70
     0
177
     3
291
     1
 70
    58
 90
        2
176
     1
 90
        1
176
     1
 90
        1
176
     1
 90
        2
176
     1
 40
0.6
176
     1
 40
30.0
176
     1
 62
     7
420
 16777215
176
     1
 90
        0
176
     1
 90
        4
176
     1
 62
     7
176
     1
 62
   257
176
     1
 90
        1
176
     1
 90
        1
176
     1
 40
1.0
176
     1
 90
        8
176
     1
 62
     7
176
     1
 40
1.0
176
     1
 90
        1
176
     1
 90
        6
176
     1
 90
        2
176
     1
 62
     7
176
     1
 90
        5
176
     1
 90
        0
176
     1
 90
        0
176
     1
290
     0
176
     1
 90
       13
176
     1
 40
0.0
176
     1
 90
        0
176
     1
290
     0
176
     1
290
     1
176
     1
290
     1
176
     1
290
     0
176
     1
290
     0
176
     1
290
     0
176
     1
290
     0
176
     1
290
     0
176
     1
290
     0
176
     1
 90
       50
176
     1
 40
0.0
176
     1
 40
1.0
176
     1
 90
        0
176
     1
 62
    18
420
        0
176
     1
 90
       50
176
     1
 90
        3
176
     1
 62
     5
420
      255
176
     1
290
     0
176
     1
 90
       50
176
     1
 90
       50
176
     1
 90
       50
176
     1
290
     0
176
     1
 90
       50
176
     1
 62
   256
176
     0
 40
1.0
176
     0
 90
        2
176
     1
  1
strokes_ogs.tif
176
     1
290
     0
176
     1
 40
1.0
176
     1
 40
1.0
176
     1
  0
VISUALSTYLE
  5
CC6
102
{ACAD_REACTORS
330
CC4
102
}
330
CC4
100
AcDbVisualStyle
  2
FlatWithEdges
 70
     1
177
     3
291
     1
 70
    58
 90
        2
176
     1
 90
        1
176
     1
 90
        1
176
     1
 90
        2
176
     1
 40
0.6
176
     1
 40
30.0
176
     1
 62
     7
420
 16777215
176
     1
 90
        1
176
     1
 90
        4
176
     1
 62
     7
176
     1
 62
   257
176
     1
 90
        1
176
     1
 90
        1
176
     1
 40
1.0
176
     1
 90
        0
176
     1
 62
   257
176
     1
 40
1.0
176
     1
 90
        1
176
     1
 90
        6
176
     1
 90
        2
176
     1
 62
     7
176
     1
 90
        5
176
     1
 90
        0
176
     1
 90
        0
176
     1
290
     0
176
     1
 90
       13
176
     1
 40
0.0
176
     1
 90
        0
176
     1
290
     0
176
     1
290
     1
176
     1
290
     1
176
     1
290
     0
176
     1
290
     0
176
     1
290
     0
176
     1
290
     0
176
     1
290
     0
176
     1
290
     0
176
     1
 90
       50
176
     1
 40
0.0
176
     1
 40
1.0
176
     1
 90
        0
176
     1
 62
    18
420
        0
176
     1
 90
       50
176
     1
 90
        3
176
     1
 62
     5
420
      255
176
     1
290
     0
176
     1
 90
       50
176
     1
 90
       50
176
     1
 90
       50
176
     1
290
     0
176
     1
 90
       50
176
     1
 62
   256
176
     0
 40
1.0
176
     0
 90
        2
176
     1
  1
strokes_ogs.tif
176
     1
290
     0
176
     1
 40
1.0
176
     1
 40
1.0
176
     1
  0
VISUALSTYLE
  5
CC7
102
{ACAD_REACTORS
330
CC4
102
}
330
CC4
100
AcDbVisualStyle
  2
Gouraud
 70
     2
177
     3
291
     1
 70
    58
 90
        2
176
     1
 90
        2
176
     1
 90
        1
176
     1
 90
        2
176
     1
 40
0.6
176
     1
 40
30.0
176
     1
 62
     7
420
 16777215
176
     1
 90
        0
176
     1
 90
        4
176
     1
 62
     7
176
     1
 62
   257
176
     1
 90
        1
176
     1
 90
        1
176
     1
 40
1.0
176
     1
 90
        0
176
     1
 62
     7
176
     1
 40
1.0
176
     1
 90
        1
176
     1
 90
        6
176
     1
 90
        2
176
     1
 62
     7
176
     1
 90
        5
176
     1
 90
        0
176
     1
 90
        0
176
     1
290
     0
176
     1
 90
       13
176
     1
 40
0.0
176
     1
 90
        0
176
     1
290
     0
176
     1
290
     1
176
     1
290
     1
176
     1
290
     0
176
     1
290
     0
176
     1
290
     0
176
     1
290
     0
176
     1
290
     0
176
     1
290
     0
176
     1
 90
       50
176
     1
 40
0.0
176
     1
 40
1.0
176
     1
 90
        0
176
     1
 62
    18
420
        0
176
     1
 90
       50
176
     1
 90
        3
176
     1
 62
     5
420
      255
176
     1
290
     0
176
     1
 90
       50
176
     1
 90
       50
176
     1
 90
       50
176
     1
290
     0
176
     1
 90
       50
176
     1
 62
   256
176
     0
 40
1.0
176
     0
 90
        2
176
     1
  1
strokes_ogs.tif
176
     1
290
     0
176
     1
 40
1.0
176
     1
 40
1.0
176
     1
  0
VISUALSTYLE
  5
CC8
102
{ACAD_REACTORS
330
CC4
102
}
330
CC4
100
AcDbVisualStyle
  2
GouraudWithEdges
 70
     3
177
     3
291
     1
 70
    58
 90
        2
176
     1
 90
        2
176
     1
 90
        1
176
     1
 90
        2
176
     1
 40
0.6
176
     1
 40
30.0
176
     1
 62
     7
420
 16777215
176
     1
 90
        1
176
     1
 90
        4
176
     1
 62
     7
176
     1
 62
   257
176
     1
 90
        1
176
     1
 90
        1
176
     1
 40
1.0
176
     1
 90
        0
176
     1
 62
   257
176
     1
 40
1.0
176
     1
 90
        1
176
     1
 90
        6
176
     1
 90
        2
176
     1
 62
     7
176
     1
 90
        5
176
     1
 90
        0
176
     1
 90
        0
176
     1
290
     0
176
     1
 90
       13
176
     1
 40
0.0
176
     1
 90
        0
176
     1
290
     0
176
     1
290
     1
176
     1
290
     1
176
     1
290
     0
176
     1
290
     0
176
     1
290
     0
176
     1
290
     0
176
     1
290
     0
176
     1
290
     0
176
     1
 90
       50
176
     1
 40
0.0
176
     1
 40
1.0
176
     1
 90
        0
176
     1
 62
    18
420
        0
176
     1
 90
       50
176
     1
 90
        3
176
     1
 62
     5
420
      255
176
     1
290
     0
176
     1
 90
       50
176
     1
 90
       50
176
     1
 90
       50
176
     1
290
     0
176
     1
 90
       50
176
     1
 62
   256
176
     0
 40
1.0
176
     0
 90
        2
176
     1
  1
strokes_ogs.tif
176
     1
290
     0
176
     1
 40
1.0
176
     1
 40
1.0
176
     1
  0
VISUALSTYLE
  5
CCB
102
{ACAD_REACTORS
330
CC4
102
}
330
CC4
100
AcDbVisualStyle
  2
Hidden
 70
     6
177
     3
291
     0
 70
    58
 90
        1
176
     1
 90
        2
176
     1
 90
        2
176
     1
 90
        0
176
     1
 40
0.6
176
     1
 40
30.0
176
     1
 62
     7
420
 16777215
176
     1
 90
        2
176
     1
 90
        2
176
     1
 62
     7
176
     1
 62
   257
176
     1
 90
        2
176
     1
 90
        1
176
     1
 40
40.0
176
     1
 90
        0
176
     1
 62
   257
176
     1
 40
1.0
176
     1
 90
        1
176
     1
 90
        6
176
     1
 90
        2
176
     1
 62
     7
176
     1
 90
        3
176
     1
 90
        0
176
     1
 90
        0
176
     1
290
     0
176
     1
 90
        1
176
     1
 40
0.0
176
     1
 90
        0
176
     1
290
     0
176
     1
290
     1
176
     1
290
     1
176
     1
290
     0
176
     1
290
     0
176
     1
290
     0
176
     1
290
     0
176
     1
290
     0
176
     1
290
     0
176
     1
 90
       50
176
     1
 40
0.0
176
     1
 40
1.0
176
     1
 90
        0
176
     1
 62
    18
420
        0
176
     1
 90
       50
176
     1
 90
        3
176
     1
 62
     5
420
      255
176
     1
290
     0
176
     1
 90
       50
176
     1
 90
       50
176
     1
 90
       50
176
     1
290
     0
176
     1
 90
       50
176
     1
 62
   256
176
     0
 40
1.0
176
     0
 90
        2
176
     1
  1
strokes_ogs.tif
176
     1
290
     0
176
     1
 40
1.0
176
     1
 40
1.0
176
     1
  0
VISUALSTYLE
  5
CD5
102
{ACAD_REACTORS
330
CC4
102
}
330
CC4
100
AcDbVisualStyle
  2
JitterOff
 70
    20
177
     3
291
     1
 70
    58
 90
        2
176
     0
 90
        2
176
     0
 90
        0
176
     0
 90
        0
176
     0
 40
0.6
176
     0
 40
30.0
176
     0
 62
     7
420
 16777215
176
     0
 90
        1
176
     0
 90
        4
176
     0
 62
     7
176
     0
 62
   257
176
     0
 90
        1
176
     0
 90
        1
176
     0
 40
1.0
176
     0
 90
       10
176
     0
 62
     7
176
     0
 40
1.0
176
     0
 90
        1
176
     0
 90
        6
176
     0
 90
        2
176
     0
 62
     7
176
     0
 90
        5
176
     0
 90
        0
176
     0
 90
        0
176
     0
290
     0
176
     0
 90
        1
176
     0
 40
0.0
176
     0
 90
        0
176
     0
290
     0
176
     1
290
     1
176
     1
290
     1
176
     1
290
     0
176
     1
290
     0
176
     1
290
     0
176
     1
290
     0
176
     1
290
     0
176
     1
290
     0
176
     1
 90
       50
176
     1
 40
0.0
176
     1
 40
1.0
176
     1
 90
        0
176
     1
 62
    18
420
        0
176
     1
 90
       50
176
     1
 90
        3
176
     1
 62
     5
420
      255
176
     1
290
     0
176
     1
 90
       50
176
     1
 90
       50
176
     1
 90
       50
176
     1
290
     0
176
     1
 90
       50
176
     1
 62
   256
176
     0
 40
1.0
176
     0
 90
        2
176
     1
  1
strokes_ogs.tif
176
     1
290
     0
176
     1
 40
1.0
176
     1
 40
1.0
176
     1
  0
VISUALSTYLE
  5
CD2
102
{ACAD_REACTORS
330
CC4
102
}
330
CC4
100
AcDbVisualStyle
  2
Linepattern
 70
    14
177
     3
291
     1
 70
    58
 90
        2
176
     1
 90
        2
176
     1
 90
        0
176
     1
 90
        0
176
     1
 40
0.6
176
     1
 40
30.0
176
     1
 62
     7
420
 16777215
176
     1
 90
        1
176
     1
 90
        4
176
     1
 62
     7
176
     1
 62
   257
176
     1
 90
        7
176
     1
 90
        7
176
     1
 40
1.0
176
     1
 90
        8
176
     1
 62
     7
176
     1
 40
1.0
176
     1
 90
        1
176
     1
 90
        6
176
     1
 90
        2
176
     1
 62
     7
176
     1
 90
        5
176
     1
 90
        0
176
     1
 90
        0
176
     1
290
     0
176
     1
 90
        1
176
     1
 40
0.0
176
     1
 90
        0
176
     1
290
     0
176
     1
290
     1
176
     1
290
     1
176
     1
290
     0
176
     1
290
     0
176
     1
290
     0
176
     1
290
     0
176
     1
290
     0
176
     1
290
     0
176
     1
 90
       50
176
     1
 40
0.0
176
     1
 40
1.0
176
     1
 90
        0
176
     1
 62
    18
420
        0
176
     1
 90
       50
176
     1
 90
        3
176
     1
 62
     5
420
      255
176
     1
290
     0
176
     1
 90
       50
176
     1
 90
       50
176
     1
 90
       50
176
     1
290
     0
176
     1
 90
       50
176
     1
 62
   256
176
     0
 40
1.0
176
     0
 90
        2
176
     1
  1
strokes_ogs.tif
176
     1
290
     0
176
     1
 40
1.0
176
     1
 40
1.0
176
     1
  0
VISUALSTYLE
  5
CD6
102
{ACAD_REACTORS
330
CC4
102
}
330
CC4
100
AcDbVisualStyle
  2
OverhangOff
 70
    21
177
     3
291
     1
 70
    58
 90
        2
176
     0
 90
        2
176
     0
 90
        0
176
     0
 90
        0
176
     0
 40
0.6
176
     0
 40
30.0
176
     0
 62
     7
420
 16777215
176
     0
 90
        1
176
     0
 90
        4
176
     0
 62
     7
176
     0
 62
   257
176
     0
 90
        1
176
     0
 90
        1
176
     0
 40
1.0
176
     0
 90
        9
176
     0
 62
     7
176
     0
 40
1.0
176
     0
 90
        1
176
     0
 90
        6
176
     0
 90
        2
176
     0
 62
     7
176
     0
 90
        5
176
     0
 90
        0
176
     0
 90
        0
176
     0
290
     0
176
     0
 90
        1
176
     0
 40
0.0
176
     0
 90
        0
176
     0
290
     0
176
     1
290
     1
176
     1
290
     1
176
     1
290
     0
176
     1
290
     0
176
     1
290
     0
176
     1
290
     0
176
     1
290
     0
176
     1
290
     0
176
     1
 90
       50
176
     1
 40
0.0
176
     1
 40
1.0
176
     1
 90
        0
176
     1
 62
    18
420
        0
176
     1
 90
       50
176
     1
 90
        3
176
     1
 62
     5
420
      255
176
     1
290
     0
176
     1
 90
       50
176
     1
 90
       50
176
     1
 90
       50
176
     1
290
     0
176
     1
 90
       50
176
     1
 62
   256
176
     0
 40
1.0
176
     0
 90
        2
176
     1
  1
strokes_ogs.tif
176
     1
290
     0
176
     1
 40
1.0
176
     1
 40
1.0
176
     1
  0
VISUALSTYLE
  5
CCD
102
{ACAD_REACTORS
330
CC4
102
}
330
CC4
100
AcDbVisualStyle
  2
Realistic
 70
     8
177
     3
291
     0
 70
    58
 90
        2
176
     1
 90
        3
176
     1
 90
        0
176
     1
 90
        2
176
     1
 40
0.6
176
     1
 40
30.0
176
     1
 62
     7
420
 16777215
176
     1
 90
        0
176
     1
 90
        0
176
     1
 62
     7
176
     1
 62
   257
176
     1
 90
        1
176
     1
 90
        1
176
     1
 40
1.0
176
     1
 90
        8
176
     1
 62
   257
176
     1
 40
1.0
176
     1
 90
        1
176
     1
 90
        6
176
     1
 90
        2
176
     1
 62
     7
176
     1
 90
        3
176
     1
 90
        0
176
     1
 90
        0
176
     1
290
     0
176
     1
 90
       13
176
     1
 40
0.0
176
     1
 90
        0
176
     1
290
     0
176
     1
290
     1
176
     1
290
     1
176
     1
290
     0
176
     1
290
     0
176
     1
290
     0
176
     1
290
     0
176
     1
290
     0
176
     1
290
     0
176
     1
 90
       50
176
     1
 40
0.0
176
     1
 40
1.0
176
     1
 90
        0
176
     1
 62
    18
420
        0
176
     1
 90
       50
176
     1
 90
        3
176
     1
 62
     5
420
      255
176
     1
290
     0
176
     1
 90
       50
176
     1
 90
       50
176
     1
 90
       50
176
     1
290
     0
176
     1
 90
       50
176
     1
 62
   256
176
     0
 40
1.0
176
     0
 90
        2
176
     1
  1
strokes_ogs.tif
176
     1
290
     0
176
     1
 40
1.0
176
     1
 40
1.0
176
     1
  0
VISUALSTYLE
  5
CDC
102
{ACAD_REACTORS
330
CC4
102
}
330
CC4
100
AcDbVisualStyle
  2
Shaded
 70
    27
177
     3
291
     0
 70
    58
 90
        2
176
     1
 90
        2
176
     1
 90
        1
176
     1
 90
        2
176
     1
 40
0.6
176
     1
 40
30.0
176
     1
 62
     7
420
 16777215
176
     1
 90
        0
176
     1
 90
        4
176
     1
 62
     7
176
     1
 62
   257
176
     1
 90
        1
176
     1
 90
        1
176
     1
 40
1.0
176
     1
 90
        8
176
     1
 62
   257
176
     1
 40
1.0
176
     1
 90
        1
176
     1
 90
        6
176
     1
 90
        2
176
     1
 62
   251
420
  5131854
176
     1
 90
        3
176
     1
 90
        0
176
     1
 90
        0
176
     1
290
     0
176
     1
 90
        5
176
     1
 40
0.0
176
     1
 90
        0
176
     1
290
     0
176
     1
290
     1
176
     1
290
     1
176
     1
290
     0
176
     1
290
     0
176
     1
290
     0
176
     1
290
     0
176
     1
290
     0
176
     1
290
     0
176
     1
 90
       50
176
     1
 40
0.0
176
     1
 40
1.0
176
     1
 90
        0
176
     1
 62
    18
420
        0
176
     1
 90
       50
176
     1
 90
        3
176
     1
 62
     5
420
      255
176
     1
290
     0
176
     1
 90
       50
176
     1
 90
       50
176
     1
 90
       50
176
     1
290
     0
176
     1
 90
       50
176
     1
 62
   256
176
     0
 40
1.0
176
     0
 90
        2
176
     1
  1
strokes_ogs.tif
176
     1
290
     0
176
     1
 40
1.0
176
     1
 40
1.0
176
     1
  0
VISUALSTYLE
  5
CDB
102
{ACAD_REACTORS
330
CC4
102
}
330
CC4
100
AcDbVisualStyle
  2
Shaded with edges
 70
    26
177
     3
291
     0
 70
    58
 90
        2
176
     1
 90
        2
176
     1
 90
        1
176
     1
 90
        2
176
     1
 40
0.6
176
     1
 40
30.0
176
     1
 62
     7
420
 16777215
176
     1
 90
        1
176
     1
 90
       10
176
     1
 62
     7
176
     1
 62
   257
176
     1
 90
        2
176
     1
 90
        1
176
     1
 40
1.0
176
     1
 90
        8
176
     1
 62
   257
176
     1
 40
1.0
176
     1
 90
        1
176
     1
 90
        6
176
     1
 90
        2
176
     1
 62
     7
176
     1
 90
        3
176
     1
 90
        0
176
     1
 90
        0
176
     1
290
     0
176
     1
 90
        5
176
     1
 40
0.0
176
     1
 90
        0
176
     1
290
     0
176
     1
290
     1
176
     1
290
     1
176
     1
290
     0
176
     1
290
     0
176
     1
290
     0
176
     1
290
     0
176
     1
290
     0
176
     1
290
     0
176
     1
 90
       50
176
     1
 40
0.0
176
     1
 40
1.0
176
     1
 90
        0
176
     1
 62
    18
420
        0
176
     1
 90
       50
176
     1
 90
        3
176
     1
 62
     5
420
      255
176
     1
290
     0
176
     1
 90
       50
176
     1
 90
       50
176
     1
 90
       50
176
     1
290
     0
176
     1
 90
       50
176
     1
 62
   256
176
     0
 40
1.0
176
     0
 90
        2
176
     1
  1
strokes_ogs.tif
176
     1
290
     0
176
     1
 40
1.0
176
     1
 40
1.0
176
     1
  0
VISUALSTYLE
  5
CD8
102
{ACAD_REACTORS
330
CC4
102
}
330
CC4
100
AcDbVisualStyle
  2
Shades of Gray
 70
    23
177
     3
291
     0
 70
    58
 90
        2
176
     1
 90
        2
176
     1
 90
        3
176
     1
 90
        0
176
     1
 40
0.6
176
     1
 40
30.0
176
     1
 62
     7
420
 16777215
176
     1
 90
        2
176
     1
 90
        2
176
     1
 62
     7
176
     1
 62
     7
176
     1
 90
        1
176
     1
 90
        1
176
     1
 40
40.0
176
     1
 90
        8
176
     1
 62
     7
176
     1
 40
1.0
176
     1
 90
        1
176
     1
 90
        6
176
     1
 90
        2
176
     1
 62
     7
176
     1
 90
        3
176
     1
 90
        0
176
     1
 90
        0
176
     1
290
     0
176
     1
 90
        1
176
     1
 40
0.0
176
     1
 90
        0
176
     1
290
     0
176
     1
290
     1
176
     1
290
     1
176
     1
290
     0
176
     1
290
     0
176
     1
290
     0
176
     1
290
     0
176
     1
290
     0
176
     1
290
     0
176
     1
 90
       50
176
     1
 40
0.0
176
     1
 40
1.0
176
     1
 90
        0
176
     1
 62
    18
420
        0
176
     1
 90
       50
176
     1
 90
        3
176
     1
 62
     5
420
      255
176
     1
290
     0
176
     1
 90
       50
176
     1
 90
       50
176
     1
 90
       50
176
     1
290
     0
176
     1
 90
       50
176
     1
 62
   256
176
     0
 40
1.0
176
     0
 90
        2
176
     1
  1
strokes_ogs.tif
176
     1
290
     0
176
     1
 40
1.0
176
     1
 40
1.0
176
     1
  0
VISUALSTYLE
  5
CD9
102
{ACAD_REACTORS
330
CC4
102
}
330
CC4
100
AcDbVisualStyle
  2
Sketchy
 70
    24
177
     3
291
     0
 70
    58
 90
        1
176
     1
 90
        2
176
     1
 90
        2
176
     1
 90
        0
176
     1
 40
0.6
176
     1
 40
30.0
176
     1
 62
     7
420
 16777215
176
     1
 90
        2
176
     1
 90
        2
176
     1
 62
     7
176
     1
 62
     7
176
     1
 90
        1
176
     1
 90
        1
176
     1
 40
40.0
176
     1
 90
       11
176
     1
 62
     7
176
     1
 40
1.0
176
     1
 90
        1
176
     1
 90
        6
176
     1
 90
        2
176
     1
 62
     7
176
     1
 90
        6
176
     1
 90
        0
176
     1
 90
        0
176
     1
290
     0
176
     1
 90
        1
176
     1
 40
0.0
176
     1
 90
        0
176
     1
290
     0
176
     1
290
     1
176
     1
290
     1
176
     1
290
     0
176
     1
290
     0
176
     1
290
     0
176
     1
290
     0
176
     1
290
     0
176
     1
290
     0
176
     1
 90
       50
176
     1
 40
0.0
176
     1
 40
1.0
176
     1
 90
        0
176
     1
 62
    18
420
        0
176
     1
 90
       50
176
     1
 90
        3
176
     1
 62
     5
420
      255
176
     1
290
     0
176
     1
 90
       50
176
     1
 90
       50
176
     1
 90
       50
176
     1
290
     0
176
     1
 90
       50
176
     1
 62
   256
176
     0
 40
1.0
176
     0
 90
        2
176
     1
  1
strokes_ogs.tif
176
     1
290
     0
176
     1
 40
1.0
176
     1
 40
1.0
176
     1
  0
VISUALSTYLE
  5
CD1
102
{ACAD_REACTORS
330
CC4
102
}
330
CC4
100
AcDbVisualStyle
  2
Thicken
 70
    13
177
     3
291
     1
 70
    58
 90
        2
176
     1
 90
        2
176
     1
 90
        0
176
     1
 90
        0
176
     1
 40
0.6
176
     1
 40
30.0
176
     1
 62
     7
420
 16777215
176
     1
 90
        1
176
     1
 90
        4
176
     1
 62
     7
176
     1
 62
   257
176
     1
 90
        1
176
     1
 90
        1
176
     1
 40
1.0
176
     1
 90
       12
176
     1
 62
     7
176
     1
 40
1.0
176
     1
 90
        1
176
     1
 90
        6
176
     1
 90
        2
176
     1
 62
     7
176
     1
 90
        5
176
     1
 90
        0
176
     1
 90
        0
176
     1
290
     0
176
     1
 90
        1
176
     1
 40
0.0
176
     1
 90
        0
176
     1
290
     0
176
     1
290
     1
176
     1
290
     1
176
     1
290
     0
176
     1
290
     0
176
     1
290
     0
176
     1
290
     0
176
     1
290
     0
176
     1
290
     0
176
     1
 90
       50
176
     1
 40
0.0
176
     1
 40
1.0
176
     1
 90
        0
176
     1
 62
    18
420
        0
176
     1
 90
       50
176
     1
 90
        3
176
     1
 62
     5
420
      255
176
     1
290
     0
176
     1
 90
       50
176
     1
 90
       50
176
     1
 90
       50
176
     1
290
     0
176
     1
 90
       50
176
     1
 62
   256
176
     0
 40
1.0
176
     0
 90
        2
176
     1
  1
strokes_ogs.tif
176
     1
290
     0
176
     1
 40
1.0
176
     1
 40
1.0
176
     1
  0
VISUALSTYLE
  5
CCA
102
{ACAD_REACTORS
330
CC4
102
}
330
CC4
100
AcDbVisualStyle
  2
Wireframe
 70
     5
177
     3
291
     0
 70
    58
 90
        0
176
     1
 90
        2
176
     1
 90
        0
176
     1
 90
        0
176
     1
 40
0.6
176
     1
 40
30.0
176
     1
 62
     7
420
 16777215
176
     1
 90
        1
176
     1
 90
        4
176
     1
 62
     7
176
     1
 62
   257
176
     1
 90
        1
176
     1
 90
        1
176
     1
 40
1.0
176
     1
 90
        0
176
     1
 62
   257
176
     1
 40
1.0
176
     1
 90
        1
176
     1
 90
        6
176
     1
 90
        2
176
     1
 62
     7
176
     1
 90
        5
176
     1
 90
        0
176
     1
 90
        0
176
     1
290
     0
176
     1
 90
        1
176
     1
 40
0.0
176
     1
 90
        0
176
     1
290
     0
176
     1
290
     1
176
     1
290
     1
176
     1
290
     0
176
     1
290
     0
176
     1
290
     0
176
     1
290
     0
176
     1
290
     0
176
     1
290
     0
176
     1
 90
       50
176
     1
 40
0.0
176
     1
 40
1.0
176
     1
 90
        0
176
     1
 62
    18
420
        0
176
     1
 90
       50
176
     1
 90
        3
176
     1
 62
     5
420
      255
176
     1
290
     0
176
     1
 90
       50
176
     1
 90
       50
176
     1
 90
       50
176
     1
290
     0
176
     1
 90
       50
176
     1
 62
   256
176
     0
 40
1.0
176
     0
 90
        2
176
     1
  1
strokes_ogs.tif
176
     1
290
     0
176
     1
 40
1.0
176
     1
 40
1.0
176
     1
  0
VISUALSTYLE
  5
CDA
102
{ACAD_REACTORS
330
CC4
102
}
330
CC4
100
AcDbVisualStyle
  2
X-Ray
 70
    25
177
     3
291
     0
 70
    58
 90
        2
176
     1
 90
        2
176
     1
 90
        1
176
     1
 90
        1
176
     1
 40
0.5
176
     1
 40
30.0
176
     1
 62
     7
420
 16777215
176
     1
 90
        1
176
     1
 90
        0
176
     1
 62
     7
176
     1
 62
   257
176
     1
 90
        1
176
     1
 90
        1
176
     1
 40
1.0
176
     1
 90
        8
176
     1
 62
     7
176
     1
 40
1.0
176
     1
 90
        1
176
     1
 90
        6
176
     1
 90
        2
176
     1
 62
     7
176
     1
 90
        3
176
     1
 90
        0
176
     1
 90
        0
176
     1
290
     0
176
     1
 90
       13
176
     1
 40
0.0
176
     1
 90
        0
176
     1
290
     0
176
     1
290
     1
176
     1
290
     1
176
     1
290
     0
176
     1
290
     0
176
     1
290
     0
176
     1
290
     0
176
     1
290
     0
176
     1
290
     0
176
     1
 90
       50
176
     1
 40
0.0
176
     1
 40
1.0
176
     1
 90
        0
176
     1
 62
    18
420
        0
176
     1
 90
       50
176
     1
 90
        3
176
     1
 62
     5
420
      255
176
     1
290
     0
176
     1
 90
       50
176
     1
 90
       50
176
     1
 90
       50
176
     1
290
     0
176
     1
 90
       50
176
     1
 62
   256
176
     0
 40
1.0
176
     0
 90
        2
176
     1
  1
strokes_ogs.tif
176
     1
290
     0
176
     1
 40
1.0
176
     1
 40
1.0
176
     1
  0
DICTIONARYVAR
  5
D97
102
{ACAD_REACTORS
330
D96
102
}
330
D96
100
DictionaryVariables
280
     0
  1
1:1
  0
DICTIONARYVAR
  5
D99
102
{ACAD_REACTORS
330
D96
102
}
330
D96
100
DictionaryVariables
280
     0
  1
Standard
  0
DICTIONARYVAR
  5
D98
102
{ACAD_REACTORS
330
D96
102
}
330
D96
100
DictionaryVariables
280
     0
  1
Standard
  0
DICTIONARYVAR
  5
D9A
102
{ACAD_REACTORS
330
D96
102
}
330
D96
100
DictionaryVariables
280
     0
  1
0
  0
DICTIONARY
  5
DA6
330
CE2
100
AcDbDictionary
280
     1
281
     1
  3
ACAD_ROUNDTRIP_2008_TABLESTYLE_CELLSTYLEMAP
360
DA7
  0
CELLSTYLEMAP
  5
DA7
102
{ACAD_REACTORS
330
DA6
102
}
330
DA6
100
AcDbCellStyleMap
 90
        3
300
CELLSTYLE
  1
TABLEFORMAT_BEGIN
 90
        5
170
     1
 91
        0
 92
    32768
 62
   257
 93
        1
300
CONTENTFORMAT
  1
CONTENTFORMAT_BEGIN
 90
        0
 91
        0
 92
        4
 93
        0
300

 40
0.0
140
1.0
 94
        5
 62
     0
340
12
144
0.25
309
CONTENTFORMAT_END
171
     1
301
MARGIN
  1
CELLMARGIN_BEGIN
 40
0.06
 40
0.06
 40
0.06
 40
0.06
 40
0.06
 40
0.06
309
CELLMARGIN_END
 94
        6
 95
        1
302
GRIDFORMAT
  1
GRIDFORMAT_BEGIN
 90
        0
 91
        1
 62
     0
 92
       -2
340
14
 93
        0
 40
0.045
309
GRIDFORMAT_END
 95
        2
302
GRIDFORMAT
  1
GRIDFORMAT_BEGIN
 90
        0
 91
        1
 62
     0
 92
       -2
340
14
 93
        0
 40
0.045
309
GRIDFORMAT_END
 95
        4
302
GRIDFORMAT
  1
GRIDFORMAT_BEGIN
 90
        0
 91
        1
 62
     0
 92
       -2
340
14
 93
        0
 40
0.045
309
GRIDFORMAT_END
 95
        8
302
GRIDFORMAT
  1
GRIDFORMAT_BEGIN
 90
        0
 91
        1
 62
     0
 92
       -2
340
14
 93
        0
 40
0.045
309
GRIDFORMAT_END
 95
       16
302
GRIDFORMAT
  1
GRIDFORMAT_BEGIN
 90
        0
 91
        1
 62
     0
 92
       -2
340
14
 93
        0
 40
0.045
309
GRIDFORMAT_END
 95
       32
302
GRIDFORMAT
  1
GRIDFORMAT_BEGIN
 90
        0
 91
        1
 62
     0
 92
       -2
340
14
 93
        0
 40
0.045
309
GRIDFORMAT_END
309
TABLEFORMAT_END
  1
CELLSTYLE_BEGIN
 90
        1
 91
        1
300
_TITLE
309
CELLSTYLE_END
300
CELLSTYLE
  1
TABLEFORMAT_BEGIN
 90
        5
170
     1
 91
        0
 92
        0
 62
   257
 93
        1
300
CONTENTFORMAT
  1
CONTENTFORMAT_BEGIN
 90
        0
 91
        0
 92
        4
 93
        0
300

 40
0.0
140
1.0
 94
        5
 62
     0
340
12
144
0.18
309
CONTENTFORMAT_END
171
     1
301
MARGIN
  1
CELLMARGIN_BEGIN
 40
0.06
 40
0.06
 40
0.06
 40
0.06
 40
0.06
 40
0.06
309
CELLMARGIN_END
 94
        6
 95
        1
302
GRIDFORMAT
  1
GRIDFORMAT_BEGIN
 90
        0
 91
        1
 62
     0
 92
       -2
340
14
 93
        0
 40
0.045
309
GRIDFORMAT_END
 95
        2
302
GRIDFORMAT
  1
GRIDFORMAT_BEGIN
 90
        0
 91
        1
 62
     0
 92
       -2
340
14
 93
        0
 40
0.045
309
GRIDFORMAT_END
 95
        4
302
GRIDFORMAT
  1
GRIDFORMAT_BEGIN
 90
        0
 91
        1
 62
     0
 92
       -2
340
14
 93
        0
 40
0.045
309
GRIDFORMAT_END
 95
        8
302
GRIDFORMAT
  1
GRIDFORMAT_BEGIN
 90
        0
 91
        1
 62
     0
 92
       -2
340
14
 93
        0
 40
0.045
309
GRIDFORMAT_END
 95
       16
302
GRIDFORMAT
  1
GRIDFORMAT_BEGIN
 90
        0
 91
        1
 62
     0
 92
       -2
340
14
 93
        0
 40
0.045
309
GRIDFORMAT_END
 95
       32
302
GRIDFORMAT
  1
GRIDFORMAT_BEGIN
 90
        0
 91
        1
 62
     0
 92
       -2
340
14
 93
        0
 40
0.045
309
GRIDFORMAT_END
309
TABLEFORMAT_END
  1
CELLSTYLE_BEGIN
 90
        2
 91
        1
300
_HEADER
309
CELLSTYLE_END
300
CELLSTYLE
  1
TABLEFORMAT_BEGIN
 90
        5
170
     1
 91
        0
 92
        0
 62
   257
 93
        1
300
CONTENTFORMAT
  1
CONTENTFORMAT_BEGIN
 90
        0
 91
        0
 92
        4
 93
        0
300

 40
0.0
140
1.0
 94
        2
 62
     0
340
12
144
0.18
309
CONTENTFORMAT_END
171
     1
301
MARGIN
  1
CELLMARGIN_BEGIN
 40
0.06
 40
0.06
 40
0.06
 40
0.06
 40
0.06
 40
0.06
309
CELLMARGIN_END
 94
        6
 95
        1
302
GRIDFORMAT
  1
GRIDFORMAT_BEGIN
 90
        0
 91
        1
 62
     0
 92
       -2
340
14
 93
        0
 40
0.045
309
GRIDFORMAT_END
 95
        2
302
GRIDFORMAT
  1
GRIDFORMAT_BEGIN
 90
        0
 91
        1
 62
     0
 92
       -2
340
14
 93
        0
 40
0.045
309
GRIDFORMAT_END
 95
        4
302
GRIDFORMAT
  1
GRIDFORMAT_BEGIN
 90
        0
 91
        1
 62
     0
 92
       -2
340
14
 93
        0
 40
0.045
309
GRIDFORMAT_END
 95
        8
302
GRIDFORMAT
  1
GRIDFORMAT_BEGIN
 90
        0
 91
        1
 62
     0
 92
       -2
340
14
 93
        0
 40
0.045
309
GRIDFORMAT_END
 95
       16
302
GRIDFORMAT
  1
GRIDFORMAT_BEGIN
 90
        0
 91
        1
 62
     0
 92
       -2
340
14
 93
        0
 40
0.045
309
GRIDFORMAT_END
 95
       32
302
GRIDFORMAT
  1
GRIDFORMAT_BEGIN
 90
        0
 91
        1
 62
     0
 92
       -2
340
14
 93
        0
 40
0.045
309
GRIDFORMAT_END
309
TABLEFORMAT_END
  1
CELLSTYLE_BEGIN
 90
        3
 91
        2
300
_DATA
309
CELLSTYLE_END
  0
ENDSEC
  0
EOF
